ISO-10303-21;
HEADER;
FILE_DESCRIPTION (( 'STEP AP214' ),
    '1' );
FILE_NAME ('ACS-8.STEP',
    '2020-10-26T23:43:15',
    ( '' ),
    ( '' ),
    'SwSTEP 2.0',
    'SolidWorks 2019',
    '' );
FILE_SCHEMA (( 'AUTOMOTIVE_DESIGN' ));
ENDSEC;

DATA;
#1 = AXIS2_PLACEMENT_3D ( 'NONE', #65, #139, #118 ) ;
#2 = PRODUCT_DEFINITION_SHAPE ( 'NONE', 'NONE',  #167 ) ;
#3 = EDGE_CURVE ( 'NONE', #166, #12, #289, .T. ) ;
#4 = FACE_OUTER_BOUND ( 'NONE', #186, .T. ) ;
#5 = CIRCLE ( 'NONE', #179, 4.000000000000000000 ) ;
#6 = DIRECTION ( 'NONE',  ( 0.0000000000000000000, 0.0000000000000000000, 1.000000000000000000 ) ) ;
#7 = ADVANCED_FACE ( 'NONE', ( #171 ), #131, .T. ) ;
#8 = PRODUCT ( 'ACS-8', 'ACS-8', '', ( #44 ) ) ;
#9 = CIRCLE ( 'NONE', #187, 3.999999999999999556 ) ;
#10 = VECTOR ( 'NONE', #201, 39.37007874015748143 ) ;
#11 = DIRECTION ( 'NONE',  ( 0.0000000000000000000, 0.0000000000000000000, 1.000000000000000000 ) ) ;
#12 = VERTEX_POINT ( 'NONE', #268 ) ;
#13 = AXIS2_PLACEMENT_3D ( 'NONE', #283, #300, #181 ) ;
#14 = FILL_AREA_STYLE ('',( #226 ) ) ;
#15 = ORIENTED_EDGE ( 'NONE', *, *, #262, .F. ) ;
#16 = CARTESIAN_POINT ( 'NONE',  ( 0.0000000000000000000, 3.999999999999999556, 0.0000000000000000000 ) ) ;
#17 = SURFACE_SIDE_STYLE ('',( #24 ) ) ;
#18 = FACE_OUTER_BOUND ( 'NONE', #301, .T. ) ;
#19 = ORIENTED_EDGE ( 'NONE', *, *, #94, .T. ) ;
#20 = CARTESIAN_POINT ( 'NONE',  ( 9.375000000000000000, 2.449293598294706414E-16, -2.000000000000000000 ) ) ;
#21 =( NAMED_UNIT ( * ) PLANE_ANGLE_UNIT ( ) SI_UNIT ( $, .RADIAN. ) );
#22 = COLOUR_RGB ( '',0.7921568627450980005, 0.8196078431372548767, 0.9333333333333333481 ) ;
#23 = EDGE_CURVE ( 'NONE', #160, #258, #241, .T. ) ;
#24 = SURFACE_STYLE_FILL_AREA ( #145 ) ;
#25 =( NAMED_UNIT ( * ) SI_UNIT ( $, .STERADIAN. ) SOLID_ANGLE_UNIT ( ) );
#26 =( NAMED_UNIT ( * ) PLANE_ANGLE_UNIT ( ) SI_UNIT ( $, .RADIAN. ) );
#27 =( GEOMETRIC_REPRESENTATION_CONTEXT ( 3 ) GLOBAL_UNCERTAINTY_ASSIGNED_CONTEXT ( ( #89 ) ) GLOBAL_UNIT_ASSIGNED_CONTEXT ( ( #170, #147, #288 ) ) REPRESENTATION_CONTEXT ( 'NONE', 'WORKASPACE' ) );
#28 = CIRCLE ( 'NONE', #216, 1.999999999999999778 ) ;
#29 =( GEOMETRIC_REPRESENTATION_CONTEXT ( 3 ) GLOBAL_UNCERTAINTY_ASSIGNED_CONTEXT ( ( #59 ) ) GLOBAL_UNIT_ASSIGNED_CONTEXT ( ( #62, #26, #25 ) ) REPRESENTATION_CONTEXT ( 'NONE', 'WORKASPACE' ) );
#30 = CARTESIAN_POINT ( 'NONE',  ( 0.0000000000000000000, 0.0000000000000000000, 0.0000000000000000000 ) ) ;
#31 = EDGE_CURVE ( 'NONE', #160, #298, #236, .T. ) ;
#32 = DIRECTION ( 'NONE',  ( 0.0000000000000000000, 0.0000000000000000000, 1.000000000000000000 ) ) ;
#33 = CARTESIAN_POINT ( 'NONE',  ( 0.0000000000000000000, 1.856105304957707054E-16, 1.515625000000000000 ) ) ;
#34 =( GEOMETRIC_REPRESENTATION_CONTEXT ( 3 ) GLOBAL_UNCERTAINTY_ASSIGNED_CONTEXT ( ( #247 ) ) GLOBAL_UNIT_ASSIGNED_CONTEXT ( ( #184, #21, #74 ) ) REPRESENTATION_CONTEXT ( 'NONE', 'WORKASPACE' ) );
#35 = DIRECTION ( 'NONE',  ( 0.0000000000000000000, 0.0000000000000000000, -1.000000000000000000 ) ) ;
#36 = CARTESIAN_POINT ( 'NONE',  ( 3.875000000000000444, 0.0000000000000000000, 4.000000000000000000 ) ) ;
#37 = PRODUCT_DEFINITION_CONTEXT ( 'detailed design', #161, 'design' ) ;
#38 = DIRECTION ( 'NONE',  ( -1.000000000000000000, 0.0000000000000000000, -0.0000000000000000000 ) ) ;
#39 = EDGE_LOOP ( 'NONE', ( #41, #140 ) ) ;
#40 = CARTESIAN_POINT ( 'NONE',  ( 3.875000000000000444, 1.999999999999999778, 0.0000000000000000000 ) ) ;
#41 = ORIENTED_EDGE ( 'NONE', *, *, #68, .T. ) ;
#42 = AXIS2_PLACEMENT_3D ( 'NONE', #130, #81, #105 ) ;
#43 = EDGE_LOOP ( 'NONE', ( #72, #250 ) ) ;
#44 = PRODUCT_CONTEXT ( 'NONE', #109, 'mechanical' ) ;
#45 = ORIENTED_EDGE ( 'NONE', *, *, #107, .T. ) ;
#46 = ADVANCED_BREP_SHAPE_REPRESENTATION ( 'ACS-8', ( #197, #91 ), #29 ) ;
#47 = VECTOR ( 'NONE', #162, 39.37007874015748143 ) ;
#48 = APPLICATION_PROTOCOL_DEFINITION ( 'draft international standard', 'automotive_design', 1998, #161 ) ;
#49 = MECHANICAL_DESIGN_GEOMETRIC_PRESENTATION_REPRESENTATION (  '', ( #196 ), #34 ) ;
#50 = ORIENTED_EDGE ( 'NONE', *, *, #220, .F. ) ;
#51 = CARTESIAN_POINT ( 'NONE',  ( 0.0000000000000000000, 0.0000000000000000000, 0.0000000000000000000 ) ) ;
#52 = CIRCLE ( 'NONE', #217, 2.000000000000000000 ) ;
#53 = FACE_OUTER_BOUND ( 'NONE', #164, .T. ) ;
#54 = CARTESIAN_POINT ( 'NONE',  ( 0.0000000000000000000, 0.0000000000000000000, 0.0000000000000000000 ) ) ;
#55 = AXIS2_PLACEMENT_3D ( 'NONE', #16, #285, #233 ) ;
#56 = DIRECTION ( 'NONE',  ( 0.0000000000000000000, 0.0000000000000000000, -1.000000000000000000 ) ) ;
#57 = LENGTH_MEASURE_WITH_UNIT ( LENGTH_MEASURE( 0.02539999999999999897 ), #112 );
#58 = CARTESIAN_POINT ( 'NONE',  ( 9.375000000000000000, 0.0000000000000000000, 0.0000000000000000000 ) ) ;
#59 = UNCERTAINTY_MEASURE_WITH_UNIT (LENGTH_MEASURE( 1.000000000000000082E-05 ), #62, 'distance_accuracy_value', 'NONE');
#60 = EDGE_CURVE ( 'NONE', #258, #135, #154, .T. ) ;
#61 = DIRECTION ( 'NONE',  ( 1.000000000000000000, 0.0000000000000000000, 0.0000000000000000000 ) ) ;
#62 =( CONVERSION_BASED_UNIT ( 'INCH', #57 ) LENGTH_UNIT ( ) NAMED_UNIT ( #263 ) );
#63 = ORIENTED_EDGE ( 'NONE', *, *, #104, .T. ) ;
#64 = DIRECTION ( 'NONE',  ( 0.0000000000000000000, 0.0000000000000000000, 1.000000000000000000 ) ) ;
#65 = CARTESIAN_POINT ( 'NONE',  ( 9.375000000000000000, 0.0000000000000000000, 0.0000000000000000000 ) ) ;
#66 = VERTEX_POINT ( 'NONE', #172 ) ;
#67 = SHAPE_DEFINITION_REPRESENTATION ( #2, #46 ) ;
#68 = EDGE_CURVE ( 'NONE', #135, #258, #9, .T. ) ;
#69 = ORIENTED_EDGE ( 'NONE', *, *, #299, .T. ) ;
#70 = DIRECTION ( 'NONE',  ( 0.0000000000000000000, 0.0000000000000000000, 1.000000000000000000 ) ) ;
#71 = DIRECTION ( 'NONE',  ( 0.0000000000000000000, 0.0000000000000000000, 1.000000000000000000 ) ) ;
#72 = ORIENTED_EDGE ( 'NONE', *, *, #220, .T. ) ;
#73 = AXIS2_PLACEMENT_3D ( 'NONE', #215, #210, #251 ) ;
#74 =( NAMED_UNIT ( * ) SI_UNIT ( $, .STERADIAN. ) SOLID_ANGLE_UNIT ( ) );
#75 = SURFACE_STYLE_USAGE ( .BOTH. , #189 ) ;
#76 = AXIS2_PLACEMENT_3D ( 'NONE', #205, #256, #71 ) ;
#77 = VECTOR ( 'NONE', #222, 39.37007874015748143 ) ;
#78 = DIMENSIONAL_EXPONENTS ( 1.000000000000000000, 0.0000000000000000000, 0.0000000000000000000, 0.0000000000000000000, 0.0000000000000000000, 0.0000000000000000000, 0.0000000000000000000 ) ;
#79 = CYLINDRICAL_SURFACE ( 'NONE', #85, 4.000000000000000000 ) ;
#80 = APPLICATION_PROTOCOL_DEFINITION ( 'draft international standard', 'automotive_design', 1998, #109 ) ;
#81 = DIRECTION ( 'NONE',  ( 1.000000000000000000, 0.0000000000000000000, 0.0000000000000000000 ) ) ;
#82 = EDGE_CURVE ( 'NONE', #125, #12, #28, .T. ) ;
#83 = DIRECTION ( 'NONE',  ( -1.000000000000000000, -0.0000000000000000000, -0.0000000000000000000 ) ) ;
#84 =( LENGTH_UNIT ( ) NAMED_UNIT ( * ) SI_UNIT ( $, .METRE. ) );
#85 = AXIS2_PLACEMENT_3D ( 'NONE', #51, #152, #245 ) ;
#86 = DIRECTION ( 'NONE',  ( -1.000000000000000000, -0.0000000000000000000, -0.0000000000000000000 ) ) ;
#87 = CARTESIAN_POINT ( 'NONE',  ( 9.375000000000000000, 0.0000000000000000000, 0.0000000000000000000 ) ) ;
#88 = LINE ( 'NONE', #33, #10 ) ;
#89 = UNCERTAINTY_MEASURE_WITH_UNIT (LENGTH_MEASURE( 1.000000000000000082E-05 ), #170, 'distance_accuracy_value', 'NONE');
#90 = DIRECTION ( 'NONE',  ( -1.000000000000000000, -0.0000000000000000000, -0.0000000000000000000 ) ) ;
#91 = AXIS2_PLACEMENT_3D ( 'NONE', #97, #70, #257 ) ;
#92 = CARTESIAN_POINT ( 'NONE',  ( 0.0000000000000000000, 0.0000000000000000000, 3.999999999999999556 ) ) ;
#93 = VERTEX_POINT ( 'NONE', #115 ) ;
#94 = EDGE_CURVE ( 'NONE', #254, #96, #195, .T. ) ;
#95 = EDGE_LOOP ( 'NONE', ( #203, #119, #234, #106 ) ) ;
#96 = VERTEX_POINT ( 'NONE', #133 ) ;
#97 = CARTESIAN_POINT ( 'NONE',  ( 0.0000000000000000000, 0.0000000000000000000, 0.0000000000000000000 ) ) ;
#98 = PLANE ( 'NONE',  #55 ) ;
#99 = EDGE_LOOP ( 'NONE', ( #159, #227, #19, #134 ) ) ;
#100 =( LENGTH_UNIT ( ) NAMED_UNIT ( * ) SI_UNIT ( $, .METRE. ) );
#101 = CARTESIAN_POINT ( 'NONE',  ( 3.875000000000000444, 4.898587196589412829E-16, -4.000000000000000000 ) ) ;
#102 = LENGTH_MEASURE_WITH_UNIT ( LENGTH_MEASURE( 0.02539999999999999897 ), #100 );
#103 = AXIS2_PLACEMENT_3D ( 'NONE', #199, #265, #243 ) ;
#104 = EDGE_CURVE ( 'NONE', #298, #135, #204, .T. ) ;
#105 = DIRECTION ( 'NONE',  ( 0.0000000000000000000, 0.0000000000000000000, -1.000000000000000000 ) ) ;
#106 = ORIENTED_EDGE ( 'NONE', *, *, #228, .F. ) ;
#107 = EDGE_CURVE ( 'NONE', #298, #160, #5, .T. ) ;
#108 = CYLINDRICAL_SURFACE ( 'NONE', #103, 4.000000000000000000 ) ;
#109 = APPLICATION_CONTEXT ( 'automotive_design' ) ;
#110 = DIRECTION ( 'NONE',  ( 0.0000000000000000000, 0.0000000000000000000, 1.000000000000000000 ) ) ;
#111 = CIRCLE ( 'NONE', #42, 1.515625000000000000 ) ;
#112 =( LENGTH_UNIT ( ) NAMED_UNIT ( * ) SI_UNIT ( $, .METRE. ) );
#113 = CARTESIAN_POINT ( 'NONE',  ( 0.0000000000000000000, 0.0000000000000000000, -1.515625000000000000 ) ) ;
#114 = ORIENTED_EDGE ( 'NONE', *, *, #228, .T. ) ;
#115 = CARTESIAN_POINT ( 'NONE',  ( 0.0000000000000000000, 0.0000000000000000000, -1.515625000000000000 ) ) ;
#116 = ORIENTED_EDGE ( 'NONE', *, *, #31, .F. ) ;
#117 = CLOSED_SHELL ( 'NONE', ( #303, #209, #191, #291, #7, #194, #239, #173, #214 ) ) ;
#118 = DIRECTION ( 'NONE',  ( 0.0000000000000000000, 0.0000000000000000000, -1.000000000000000000 ) ) ;
#119 = ORIENTED_EDGE ( 'NONE', *, *, #277, .T. ) ;
#120 = PLANE ( 'NONE',  #136 ) ;
#121 = DIRECTION ( 'NONE',  ( -0.0000000000000000000, 0.0000000000000000000, 1.000000000000000000 ) ) ;
#122 = ORIENTED_EDGE ( 'NONE', *, *, #23, .F. ) ;
#123 = EDGE_CURVE ( 'NONE', #190, #125, #253, .T. ) ;
#124 = PRODUCT_DEFINITION_FORMATION_WITH_SPECIFIED_SOURCE ( 'ANY', '', #8, .NOT_KNOWN. ) ;
#125 = VERTEX_POINT ( 'NONE', #137 ) ;
#126 = FACE_OUTER_BOUND ( 'NONE', #206, .T. ) ;
#127 = MECHANICAL_DESIGN_GEOMETRIC_PRESENTATION_REPRESENTATION (  '', ( #237 ), #27 ) ;
#128 = DIRECTION ( 'NONE',  ( 0.0000000000000000000, 0.0000000000000000000, 1.000000000000000000 ) ) ;
#129 = DIRECTION ( 'NONE',  ( -1.000000000000000000, -0.0000000000000000000, -0.0000000000000000000 ) ) ;
#130 = CARTESIAN_POINT ( 'NONE',  ( 0.0000000000000000000, 0.0000000000000000000, 0.0000000000000000000 ) ) ;
#131 = CYLINDRICAL_SURFACE ( 'NONE', #260, 2.000000000000000000 ) ;
#132 = EDGE_CURVE ( 'NONE', #190, #166, #221, .T. ) ;
#133 = CARTESIAN_POINT ( 'NONE',  ( 9.375000000000000000, 0.0000000000000000000, -1.515625000000000000 ) ) ;
#134 = ORIENTED_EDGE ( 'NONE', *, *, #299, .F. ) ;
#135 = VERTEX_POINT ( 'NONE', #92 ) ;
#136 = AXIS2_PLACEMENT_3D ( 'NONE', #40, #38, #121 ) ;
#137 = CARTESIAN_POINT ( 'NONE',  ( 3.875000000000000444, 0.0000000000000000000, 1.999999999999999778 ) ) ;
#138 = EDGE_LOOP ( 'NONE', ( #178, #157 ) ) ;
#139 = DIRECTION ( 'NONE',  ( 1.000000000000000000, 0.0000000000000000000, 0.0000000000000000000 ) ) ;
#140 = ORIENTED_EDGE ( 'NONE', *, *, #60, .T. ) ;
#141 = ORIENTED_EDGE ( 'NONE', *, *, #104, .F. ) ;
#142 = VECTOR ( 'NONE', #90, 39.37007874015748143 ) ;
#143 = SURFACE_STYLE_USAGE ( .BOTH. , #17 ) ;
#144 = ORIENTED_EDGE ( 'NONE', *, *, #82, .T. ) ;
#145 = FILL_AREA_STYLE ('',( #264 ) ) ;
#146 = CIRCLE ( 'NONE', #282, 1.999999999999999778 ) ;
#147 =( NAMED_UNIT ( * ) PLANE_ANGLE_UNIT ( ) SI_UNIT ( $, .RADIAN. ) );
#148 = DIRECTION ( 'NONE',  ( -1.000000000000000000, -0.0000000000000000000, -0.0000000000000000000 ) ) ;
#149 = CARTESIAN_POINT ( 'NONE',  ( 0.0000000000000000000, 0.0000000000000000000, 0.0000000000000000000 ) ) ;
#150 = EDGE_CURVE ( 'NONE', #66, #93, #242, .T. ) ;
#151 = CARTESIAN_POINT ( 'NONE',  ( 0.0000000000000000000, 4.898587196589412829E-16, -4.000000000000000000 ) ) ;
#152 = DIRECTION ( 'NONE',  ( -1.000000000000000000, -0.0000000000000000000, -0.0000000000000000000 ) ) ;
#153 = EDGE_CURVE ( 'NONE', #96, #254, #287, .T. ) ;
#154 = CIRCLE ( 'NONE', #230, 3.999999999999999556 ) ;
#155 = DIRECTION ( 'NONE',  ( -0.0000000000000000000, 0.0000000000000000000, 1.000000000000000000 ) ) ;
#156 = CYLINDRICAL_SURFACE ( 'NONE', #73, 2.000000000000000000 ) ;
#157 = ORIENTED_EDGE ( 'NONE', *, *, #277, .F. ) ;
#158 = CARTESIAN_POINT ( 'NONE',  ( 9.375000000000000000, 0.0000000000000000000, 2.000000000000000000 ) ) ;
#159 = ORIENTED_EDGE ( 'NONE', *, *, #150, .F. ) ;
#160 = VERTEX_POINT ( 'NONE', #101 ) ;
#161 = APPLICATION_CONTEXT ( 'automotive_design' ) ;
#162 = DIRECTION ( 'NONE',  ( -1.000000000000000000, -0.0000000000000000000, -0.0000000000000000000 ) ) ;
#163 = PRODUCT_RELATED_PRODUCT_CATEGORY ( 'part', '', ( #8 ) ) ;
#164 = EDGE_LOOP ( 'NONE', ( #15, #50, #69, #182 ) ) ;
#165 = PRESENTATION_STYLE_ASSIGNMENT (( #75 ) ) ;
#166 = VERTEX_POINT ( 'NONE', #20 ) ;
#167 = PRODUCT_DEFINITION ( 'UNKNOWN', '', #124, #37 ) ;
#168 = AXIS2_PLACEMENT_3D ( 'NONE', #266, #270, #290 ) ;
#169 = AXIS2_PLACEMENT_3D ( 'NONE', #149, #238, #56 ) ;
#170 =( CONVERSION_BASED_UNIT ( 'INCH', #193 ) LENGTH_UNIT ( ) NAMED_UNIT ( #78 ) );
#171 = FACE_OUTER_BOUND ( 'NONE', #95, .T. ) ;
#172 = CARTESIAN_POINT ( 'NONE',  ( 0.0000000000000000000, 1.856105304957707054E-16, 1.515625000000000000 ) ) ;
#173 = ADVANCED_FACE ( 'NONE', ( #231, #235 ), #98, .F. ) ;
#174 = DIRECTION ( 'NONE',  ( 1.000000000000000000, -0.0000000000000000000, -0.0000000000000000000 ) ) ;
#175 = CARTESIAN_POINT ( 'NONE',  ( 0.0000000000000000000, 0.0000000000000000000, 0.0000000000000000000 ) ) ;
#176 = CYLINDRICAL_SURFACE ( 'NONE', #255, 1.515625000000000000 ) ;
#177 = DIRECTION ( 'NONE',  ( 0.0000000000000000000, 0.0000000000000000000, 1.000000000000000000 ) ) ;
#178 = ORIENTED_EDGE ( 'NONE', *, *, #132, .F. ) ;
#179 = AXIS2_PLACEMENT_3D ( 'NONE', #180, #278, #64 ) ;
#180 = CARTESIAN_POINT ( 'NONE',  ( 3.875000000000000444, 0.0000000000000000000, 0.0000000000000000000 ) ) ;
#181 = DIRECTION ( 'NONE',  ( 0.0000000000000000000, 0.0000000000000000000, -1.000000000000000000 ) ) ;
#182 = ORIENTED_EDGE ( 'NONE', *, *, #153, .T. ) ;
#183 = ORIENTED_EDGE ( 'NONE', *, *, #31, .T. ) ;
#184 =( CONVERSION_BASED_UNIT ( 'INCH', #102 ) LENGTH_UNIT ( ) NAMED_UNIT ( #259 ) );
#185 = CARTESIAN_POINT ( 'NONE',  ( 0.0000000000000000000, 0.0000000000000000000, 2.000000000000000000 ) ) ;
#186 = EDGE_LOOP ( 'NONE', ( #45, #284, #280, #141 ) ) ;
#187 = AXIS2_PLACEMENT_3D ( 'NONE', #54, #129, #110 ) ;
#188 = COLOUR_RGB ( '',0.7921568627450980005, 0.8196078431372548767, 0.9333333333333333481 ) ;
#189 = SURFACE_SIDE_STYLE ('',( #207 ) ) ;
#190 = VERTEX_POINT ( 'NONE', #158 ) ;
#191 = ADVANCED_FACE ( 'NONE', ( #18 ), #156, .T. ) ;
#192 = VECTOR ( 'NONE', #223, 39.37007874015748143 ) ;
#193 = LENGTH_MEASURE_WITH_UNIT ( LENGTH_MEASURE( 0.02539999999999999897 ), #84 );
#194 = ADVANCED_FACE ( 'NONE', ( #212, #249 ), #120, .F. ) ;
#195 = CIRCLE ( 'NONE', #275, 1.515625000000000000 ) ;
#196 = STYLED_ITEM ( 'NONE', ( #302 ), #46 ) ;
#197 = MANIFOLD_SOLID_BREP ( 'Cut-Extrude1', #117 ) ;
#198 = CARTESIAN_POINT ( 'NONE',  ( 3.875000000000000444, 0.0000000000000000000, 0.0000000000000000000 ) ) ;
#199 = CARTESIAN_POINT ( 'NONE',  ( 0.0000000000000000000, 0.0000000000000000000, 0.0000000000000000000 ) ) ;
#200 = PRESENTATION_LAYER_ASSIGNMENT (  '', '', ( #237 ) ) ;
#201 = DIRECTION ( 'NONE',  ( 1.000000000000000000, -0.0000000000000000000, -0.0000000000000000000 ) ) ;
#202 = CARTESIAN_POINT ( 'NONE',  ( 0.0000000000000000000, 4.898587196589411843E-16, -3.999999999999999556 ) ) ;
#203 = ORIENTED_EDGE ( 'NONE', *, *, #3, .F. ) ;
#204 = LINE ( 'NONE', #296, #142 ) ;
#205 = CARTESIAN_POINT ( 'NONE',  ( 9.375000000000000000, 0.0000000000000000000, 0.0000000000000000000 ) ) ;
#206 = EDGE_LOOP ( 'NONE', ( #122, #183, #63, #208 ) ) ;
#207 = SURFACE_STYLE_FILL_AREA ( #14 ) ;
#208 = ORIENTED_EDGE ( 'NONE', *, *, #60, .F. ) ;
#209 = ADVANCED_FACE ( 'NONE', ( #4 ), #108, .T. ) ;
#210 = DIRECTION ( 'NONE',  ( -1.000000000000000000, -0.0000000000000000000, -0.0000000000000000000 ) ) ;
#211 = ORIENTED_EDGE ( 'NONE', *, *, #94, .F. ) ;
#212 = FACE_OUTER_BOUND ( 'NONE', #297, .T. ) ;
#213 = ORIENTED_EDGE ( 'NONE', *, *, #132, .T. ) ;
#214 = ADVANCED_FACE ( 'NONE', ( #53 ), #267, .F. ) ;
#215 = CARTESIAN_POINT ( 'NONE',  ( 0.0000000000000000000, 0.0000000000000000000, 0.0000000000000000000 ) ) ;
#216 = AXIS2_PLACEMENT_3D ( 'NONE', #198, #293, #177 ) ;
#217 = AXIS2_PLACEMENT_3D ( 'NONE', #58, #246, #11 ) ;
#218 = CARTESIAN_POINT ( 'NONE',  ( 3.875000000000000444, 0.0000000000000000000, 0.0000000000000000000 ) ) ;
#219 = EDGE_LOOP ( 'NONE', ( #144, #114 ) ) ;
#220 = EDGE_CURVE ( 'NONE', #93, #66, #111, .T. ) ;
#221 = CIRCLE ( 'NONE', #76, 2.000000000000000000 ) ;
#222 = DIRECTION ( 'NONE',  ( 1.000000000000000000, -0.0000000000000000000, -0.0000000000000000000 ) ) ;
#223 = DIRECTION ( 'NONE',  ( -1.000000000000000000, -0.0000000000000000000, -0.0000000000000000000 ) ) ;
#224 = CARTESIAN_POINT ( 'NONE',  ( 9.375000000000000000, 1.856105304957707054E-16, 1.515625000000000000 ) ) ;
#225 = FACE_OUTER_BOUND ( 'NONE', #99, .T. ) ;
#226 = FILL_AREA_STYLE_COLOUR ( '', #188 ) ;
#227 = ORIENTED_EDGE ( 'NONE', *, *, #262, .T. ) ;
#228 = EDGE_CURVE ( 'NONE', #12, #125, #146, .T. ) ;
#229 = ORIENTED_EDGE ( 'NONE', *, *, #82, .F. ) ;
#230 = AXIS2_PLACEMENT_3D ( 'NONE', #30, #83, #32 ) ;
#231 = FACE_BOUND ( 'NONE', #43, .T. ) ;
#232 = EDGE_LOOP ( 'NONE', ( #295, #211 ) ) ;
#233 = DIRECTION ( 'NONE',  ( 0.0000000000000000000, 0.0000000000000000000, -1.000000000000000000 ) ) ;
#234 = ORIENTED_EDGE ( 'NONE', *, *, #123, .T. ) ;
#235 = FACE_OUTER_BOUND ( 'NONE', #39, .T. ) ;
#236 = CIRCLE ( 'NONE', #168, 4.000000000000000000 ) ;
#237 = STYLED_ITEM ( 'NONE', ( #165 ), #197 ) ;
#238 = DIRECTION ( 'NONE',  ( 1.000000000000000000, -0.0000000000000000000, -0.0000000000000000000 ) ) ;
#239 = ADVANCED_FACE ( 'NONE', ( #126 ), #79, .T. ) ;
#240 = DIRECTION ( 'NONE',  ( -1.000000000000000000, -0.0000000000000000000, -0.0000000000000000000 ) ) ;
#241 = LINE ( 'NONE', #151, #192 ) ;
#242 = CIRCLE ( 'NONE', #13, 1.515625000000000000 ) ;
#243 = DIRECTION ( 'NONE',  ( 0.0000000000000000000, 0.0000000000000000000, 1.000000000000000000 ) ) ;
#244 = CARTESIAN_POINT ( 'NONE',  ( 0.0000000000000000000, 2.449293598294706414E-16, -2.000000000000000000 ) ) ;
#245 = DIRECTION ( 'NONE',  ( 0.0000000000000000000, 0.0000000000000000000, 1.000000000000000000 ) ) ;
#246 = DIRECTION ( 'NONE',  ( -1.000000000000000000, -0.0000000000000000000, -0.0000000000000000000 ) ) ;
#247 = UNCERTAINTY_MEASURE_WITH_UNIT (LENGTH_MEASURE( 1.000000000000000082E-05 ), #184, 'distance_accuracy_value', 'NONE');
#248 = LINE ( 'NONE', #113, #77 ) ;
#249 = FACE_BOUND ( 'NONE', #219, .T. ) ;
#250 = ORIENTED_EDGE ( 'NONE', *, *, #150, .T. ) ;
#251 = DIRECTION ( 'NONE',  ( 0.0000000000000000000, 0.0000000000000000000, 1.000000000000000000 ) ) ;
#252 = ORIENTED_EDGE ( 'NONE', *, *, #3, .T. ) ;
#253 = LINE ( 'NONE', #185, #47 ) ;
#254 = VERTEX_POINT ( 'NONE', #224 ) ;
#255 = AXIS2_PLACEMENT_3D ( 'NONE', #294, #174, #269 ) ;
#256 = DIRECTION ( 'NONE',  ( -1.000000000000000000, -0.0000000000000000000, -0.0000000000000000000 ) ) ;
#257 = DIRECTION ( 'NONE',  ( 1.000000000000000000, 0.0000000000000000000, 0.0000000000000000000 ) ) ;
#258 = VERTEX_POINT ( 'NONE', #202 ) ;
#259 = DIMENSIONAL_EXPONENTS ( 1.000000000000000000, 0.0000000000000000000, 0.0000000000000000000, 0.0000000000000000000, 0.0000000000000000000, 0.0000000000000000000, 0.0000000000000000000 ) ;
#260 = AXIS2_PLACEMENT_3D ( 'NONE', #175, #148, #128 ) ;
#261 = AXIS2_PLACEMENT_3D ( 'NONE', #87, #279, #155 ) ;
#262 = EDGE_CURVE ( 'NONE', #66, #254, #88, .T. ) ;
#263 = DIMENSIONAL_EXPONENTS ( 1.000000000000000000, 0.0000000000000000000, 0.0000000000000000000, 0.0000000000000000000, 0.0000000000000000000, 0.0000000000000000000, 0.0000000000000000000 ) ;
#264 = FILL_AREA_STYLE_COLOUR ( '', #22 ) ;
#265 = DIRECTION ( 'NONE',  ( -1.000000000000000000, -0.0000000000000000000, -0.0000000000000000000 ) ) ;
#266 = CARTESIAN_POINT ( 'NONE',  ( 3.875000000000000444, 0.0000000000000000000, 0.0000000000000000000 ) ) ;
#267 = CYLINDRICAL_SURFACE ( 'NONE', #169, 1.515625000000000000 ) ;
#268 = CARTESIAN_POINT ( 'NONE',  ( 3.875000000000000444, 2.449293598294705921E-16, -1.999999999999999778 ) ) ;
#269 = DIRECTION ( 'NONE',  ( 0.0000000000000000000, 0.0000000000000000000, -1.000000000000000000 ) ) ;
#270 = DIRECTION ( 'NONE',  ( -1.000000000000000000, -0.0000000000000000000, -0.0000000000000000000 ) ) ;
#271 = FACE_OUTER_BOUND ( 'NONE', #138, .T. ) ;
#272 = CARTESIAN_POINT ( 'NONE',  ( 9.375000000000000000, 0.0000000000000000000, 0.0000000000000000000 ) ) ;
#273 = FACE_BOUND ( 'NONE', #232, .T. ) ;
#274 = ORIENTED_EDGE ( 'NONE', *, *, #107, .F. ) ;
#275 = AXIS2_PLACEMENT_3D ( 'NONE', #272, #61, #35 ) ;
#276 = PRESENTATION_LAYER_ASSIGNMENT (  '', '', ( #196 ) ) ;
#277 = EDGE_CURVE ( 'NONE', #166, #190, #52, .T. ) ;
#278 = DIRECTION ( 'NONE',  ( -1.000000000000000000, -0.0000000000000000000, -0.0000000000000000000 ) ) ;
#279 = DIRECTION ( 'NONE',  ( -1.000000000000000000, 0.0000000000000000000, -0.0000000000000000000 ) ) ;
#280 = ORIENTED_EDGE ( 'NONE', *, *, #68, .F. ) ;
#281 = ORIENTED_EDGE ( 'NONE', *, *, #123, .F. ) ;
#282 = AXIS2_PLACEMENT_3D ( 'NONE', #218, #240, #6 ) ;
#283 = CARTESIAN_POINT ( 'NONE',  ( 0.0000000000000000000, 0.0000000000000000000, 0.0000000000000000000 ) ) ;
#284 = ORIENTED_EDGE ( 'NONE', *, *, #23, .T. ) ;
#285 = DIRECTION ( 'NONE',  ( 1.000000000000000000, 0.0000000000000000000, 0.0000000000000000000 ) ) ;
#286 = VECTOR ( 'NONE', #86, 39.37007874015748143 ) ;
#287 = CIRCLE ( 'NONE', #1, 1.515625000000000000 ) ;
#288 =( NAMED_UNIT ( * ) SI_UNIT ( $, .STERADIAN. ) SOLID_ANGLE_UNIT ( ) );
#289 = LINE ( 'NONE', #244, #286 ) ;
#290 = DIRECTION ( 'NONE',  ( 0.0000000000000000000, 0.0000000000000000000, 1.000000000000000000 ) ) ;
#291 = ADVANCED_FACE ( 'NONE', ( #273, #271 ), #292, .F. ) ;
#292 = PLANE ( 'NONE',  #261 ) ;
#293 = DIRECTION ( 'NONE',  ( -1.000000000000000000, -0.0000000000000000000, -0.0000000000000000000 ) ) ;
#294 = CARTESIAN_POINT ( 'NONE',  ( 0.0000000000000000000, 0.0000000000000000000, 0.0000000000000000000 ) ) ;
#295 = ORIENTED_EDGE ( 'NONE', *, *, #153, .F. ) ;
#296 = CARTESIAN_POINT ( 'NONE',  ( 0.0000000000000000000, 0.0000000000000000000, 4.000000000000000000 ) ) ;
#297 = EDGE_LOOP ( 'NONE', ( #274, #116 ) ) ;
#298 = VERTEX_POINT ( 'NONE', #36 ) ;
#299 = EDGE_CURVE ( 'NONE', #93, #96, #248, .T. ) ;
#300 = DIRECTION ( 'NONE',  ( 1.000000000000000000, 0.0000000000000000000, 0.0000000000000000000 ) ) ;
#301 = EDGE_LOOP ( 'NONE', ( #213, #252, #229, #281 ) ) ;
#302 = PRESENTATION_STYLE_ASSIGNMENT (( #143 ) ) ;
#303 = ADVANCED_FACE ( 'NONE', ( #225 ), #176, .F. ) ;
ENDSEC;
END-ISO-10303-21;
