ISO-10303-21;
HEADER;
FILE_DESCRIPTION (( 'STEP AP214' ),
    '1' );
FILE_NAME ('ACS-6.STEP',
    '2020-10-26T23:40:29',
    ( '' ),
    ( '' ),
    'SwSTEP 2.0',
    'SolidWorks 2019',
    '' );
FILE_SCHEMA (( 'AUTOMOTIVE_DESIGN' ));
ENDSEC;

DATA;
#1 = CARTESIAN_POINT ( 'NONE',  ( 9.375000000000000000, 0.0000000000000000000, 0.0000000000000000000 ) ) ;
#2 = VECTOR ( 'NONE', #29, 39.37007874015748143 ) ;
#3 = CARTESIAN_POINT ( 'NONE',  ( 0.0000000000000000000, 1.856105304957707054E-16, 1.515625000000000000 ) ) ;
#4 = DIRECTION ( 'NONE',  ( -1.000000000000000000, -0.0000000000000000000, -0.0000000000000000000 ) ) ;
#5 = VECTOR ( 'NONE', #275, 39.37007874015748143 ) ;
#6 = VERTEX_POINT ( 'NONE', #125 ) ;
#7 = COLOUR_RGB ( '',0.7921568627450980005, 0.8196078431372548767, 0.9333333333333333481 ) ;
#8 = VERTEX_POINT ( 'NONE', #226 ) ;
#9 = VERTEX_POINT ( 'NONE', #152 ) ;
#10 = SURFACE_STYLE_USAGE ( .BOTH. , #220 ) ;
#11 = CARTESIAN_POINT ( 'NONE',  ( 0.0000000000000000000, 0.0000000000000000000, 0.0000000000000000000 ) ) ;
#12 = ADVANCED_FACE ( 'NONE', ( #200 ), #198, .F. ) ;
#13 = EDGE_LOOP ( 'NONE', ( #143, #288 ) ) ;
#14 =( CONVERSION_BASED_UNIT ( 'INCH', #172 ) LENGTH_UNIT ( ) NAMED_UNIT ( #16 ) );
#15 = AXIS2_PLACEMENT_3D ( 'NONE', #42, #250, #67 ) ;
#16 = DIMENSIONAL_EXPONENTS ( 1.000000000000000000, 0.0000000000000000000, 0.0000000000000000000, 0.0000000000000000000, 0.0000000000000000000, 0.0000000000000000000, 0.0000000000000000000 ) ;
#17 = ORIENTED_EDGE ( 'NONE', *, *, #243, .F. ) ;
#18 = CARTESIAN_POINT ( 'NONE',  ( 0.0000000000000000000, 0.0000000000000000000, 0.0000000000000000000 ) ) ;
#19 = ORIENTED_EDGE ( 'NONE', *, *, #298, .T. ) ;
#20 = VECTOR ( 'NONE', #214, 39.37007874015748143 ) ;
#21 = PRESENTATION_STYLE_ASSIGNMENT (( #129 ) ) ;
#22 = ADVANCED_FACE ( 'NONE', ( #178, #85 ), #176, .F. ) ;
#23 = EDGE_CURVE ( 'NONE', #218, #142, #211, .T. ) ;
#24 = DIRECTION ( 'NONE',  ( 0.0000000000000000000, 0.0000000000000000000, 1.000000000000000000 ) ) ;
#25 = DIRECTION ( 'NONE',  ( -1.000000000000000000, -0.0000000000000000000, -0.0000000000000000000 ) ) ;
#26 = DIRECTION ( 'NONE',  ( 0.0000000000000000000, 0.0000000000000000000, -1.000000000000000000 ) ) ;
#27 = DIRECTION ( 'NONE',  ( -1.000000000000000000, -0.0000000000000000000, -0.0000000000000000000 ) ) ;
#28 = CIRCLE ( 'NONE', #190, 2.999999999999999556 ) ;
#29 = DIRECTION ( 'NONE',  ( 1.000000000000000000, -0.0000000000000000000, -0.0000000000000000000 ) ) ;
#30 = CARTESIAN_POINT ( 'NONE',  ( 0.0000000000000000000, 0.0000000000000000000, 2.000000000000000000 ) ) ;
#31 = DIRECTION ( 'NONE',  ( -1.000000000000000000, -0.0000000000000000000, -0.0000000000000000000 ) ) ;
#32 = EDGE_CURVE ( 'NONE', #142, #218, #187, .T. ) ;
#33 = VECTOR ( 'NONE', #156, 39.37007874015748143 ) ;
#34 = ORIENTED_EDGE ( 'NONE', *, *, #63, .T. ) ;
#35 = LENGTH_MEASURE_WITH_UNIT ( LENGTH_MEASURE( 0.02539999999999999897 ), #40 );
#36 = PRODUCT_CONTEXT ( 'NONE', #59, 'mechanical' ) ;
#37 = ORIENTED_EDGE ( 'NONE', *, *, #188, .F. ) ;
#38 = EDGE_LOOP ( 'NONE', ( #103, #34, #189, #39 ) ) ;
#39 = ORIENTED_EDGE ( 'NONE', *, *, #131, .F. ) ;
#40 =( LENGTH_UNIT ( ) NAMED_UNIT ( * ) SI_UNIT ( $, .METRE. ) );
#41 = DIRECTION ( 'NONE',  ( 0.0000000000000000000, 0.0000000000000000000, 1.000000000000000000 ) ) ;
#42 = CARTESIAN_POINT ( 'NONE',  ( 0.0000000000000000000, 0.0000000000000000000, 0.0000000000000000000 ) ) ;
#43 = FILL_AREA_STYLE ('',( #181 ) ) ;
#44 = CARTESIAN_POINT ( 'NONE',  ( 0.0000000000000000000, 0.0000000000000000000, 0.0000000000000000000 ) ) ;
#45 = AXIS2_PLACEMENT_3D ( 'NONE', #236, #95, #161 ) ;
#46 = FACE_OUTER_BOUND ( 'NONE', #270, .T. ) ;
#47 = CARTESIAN_POINT ( 'NONE',  ( 3.875000000000000444, 2.449293598294705921E-16, -1.999999999999999778 ) ) ;
#48 = CARTESIAN_POINT ( 'NONE',  ( 3.875000000000000444, 0.0000000000000000000, 0.0000000000000000000 ) ) ;
#49 = AXIS2_PLACEMENT_3D ( 'NONE', #48, #107, #134 ) ;
#50 = CARTESIAN_POINT ( 'NONE',  ( 9.375000000000000000, 0.0000000000000000000, 0.0000000000000000000 ) ) ;
#51 = UNCERTAINTY_MEASURE_WITH_UNIT (LENGTH_MEASURE( 1.000000000000000082E-05 ), #160, 'distance_accuracy_value', 'NONE');
#52 = FACE_OUTER_BOUND ( 'NONE', #64, .T. ) ;
#53 = MECHANICAL_DESIGN_GEOMETRIC_PRESENTATION_REPRESENTATION (  '', ( #274 ), #260 ) ;
#54 = DIRECTION ( 'NONE',  ( 0.0000000000000000000, 0.0000000000000000000, -1.000000000000000000 ) ) ;
#55 = DIRECTION ( 'NONE',  ( 1.000000000000000000, -0.0000000000000000000, -0.0000000000000000000 ) ) ;
#56 = ADVANCED_FACE ( 'NONE', ( #46 ), #154, .T. ) ;
#57 =( GEOMETRIC_REPRESENTATION_CONTEXT ( 3 ) GLOBAL_UNCERTAINTY_ASSIGNED_CONTEXT ( ( #51 ) ) GLOBAL_UNIT_ASSIGNED_CONTEXT ( ( #160, #94, #234 ) ) REPRESENTATION_CONTEXT ( 'NONE', 'WORKASPACE' ) );
#58 = ORIENTED_EDGE ( 'NONE', *, *, #80, .T. ) ;
#59 = APPLICATION_CONTEXT ( 'automotive_design' ) ;
#60 = AXIS2_PLACEMENT_3D ( 'NONE', #71, #4, #114 ) ;
#61 = ORIENTED_EDGE ( 'NONE', *, *, #131, .T. ) ;
#62 =( NAMED_UNIT ( * ) PLANE_ANGLE_UNIT ( ) SI_UNIT ( $, .RADIAN. ) );
#63 = EDGE_CURVE ( 'NONE', #6, #8, #197, .T. ) ;
#64 = EDGE_LOOP ( 'NONE', ( #87, #148 ) ) ;
#65 = DIRECTION ( 'NONE',  ( 1.000000000000000000, 0.0000000000000000000, 0.0000000000000000000 ) ) ;
#66 = CARTESIAN_POINT ( 'NONE',  ( 0.0000000000000000000, 0.0000000000000000000, 2.999999999999999556 ) ) ;
#67 = DIRECTION ( 'NONE',  ( 0.0000000000000000000, 0.0000000000000000000, -1.000000000000000000 ) ) ;
#68 = DIRECTION ( 'NONE',  ( 0.0000000000000000000, 0.0000000000000000000, -1.000000000000000000 ) ) ;
#69 = SURFACE_SIDE_STYLE ('',( #253 ) ) ;
#70 = CARTESIAN_POINT ( 'NONE',  ( 0.0000000000000000000, 0.0000000000000000000, 0.0000000000000000000 ) ) ;
#71 = CARTESIAN_POINT ( 'NONE',  ( 3.875000000000000444, 0.0000000000000000000, 0.0000000000000000000 ) ) ;
#72 = CARTESIAN_POINT ( 'NONE',  ( 9.375000000000000000, 1.856105304957707054E-16, 1.515625000000000000 ) ) ;
#73 = DIRECTION ( 'NONE',  ( 0.0000000000000000000, 0.0000000000000000000, 1.000000000000000000 ) ) ;
#74 = PLANE ( 'NONE',  #45 ) ;
#75 =( LENGTH_UNIT ( ) NAMED_UNIT ( * ) SI_UNIT ( $, .METRE. ) );
#76 = EDGE_CURVE ( 'NONE', #97, #149, #159, .T. ) ;
#77 = AXIS2_PLACEMENT_3D ( 'NONE', #70, #177, #255 ) ;
#78 = ORIENTED_EDGE ( 'NONE', *, *, #155, .F. ) ;
#79 = ORIENTED_EDGE ( 'NONE', *, *, #244, .T. ) ;
#80 = EDGE_CURVE ( 'NONE', #6, #269, #109, .T. ) ;
#81 = ORIENTED_EDGE ( 'NONE', *, *, #287, .F. ) ;
#82 = AXIS2_PLACEMENT_3D ( 'NONE', #86, #132, #207 ) ;
#83 = EDGE_LOOP ( 'NONE', ( #193, #240, #79, #241 ) ) ;
#84 = SURFACE_STYLE_FILL_AREA ( #126 ) ;
#85 = FACE_OUTER_BOUND ( 'NONE', #174, .T. ) ;
#86 = CARTESIAN_POINT ( 'NONE',  ( 9.375000000000000000, 0.0000000000000000000, 0.0000000000000000000 ) ) ;
#87 = ORIENTED_EDGE ( 'NONE', *, *, #121, .F. ) ;
#88 = DIRECTION ( 'NONE',  ( -1.000000000000000000, -0.0000000000000000000, -0.0000000000000000000 ) ) ;
#89 = DIRECTION ( 'NONE',  ( -1.000000000000000000, -0.0000000000000000000, -0.0000000000000000000 ) ) ;
#90 = DIRECTION ( 'NONE',  ( 0.0000000000000000000, 0.0000000000000000000, 1.000000000000000000 ) ) ;
#91 = PRODUCT_DEFINITION_CONTEXT ( 'detailed design', #213, 'design' ) ;
#92 = CIRCLE ( 'NONE', #230, 2.000000000000000000 ) ;
#93 = DIRECTION ( 'NONE',  ( 1.000000000000000000, -0.0000000000000000000, -0.0000000000000000000 ) ) ;
#94 =( NAMED_UNIT ( * ) PLANE_ANGLE_UNIT ( ) SI_UNIT ( $, .RADIAN. ) );
#95 = DIRECTION ( 'NONE',  ( -1.000000000000000000, 0.0000000000000000000, -0.0000000000000000000 ) ) ;
#96 = CIRCLE ( 'NONE', #130, 2.999999999999999112 ) ;
#97 = VERTEX_POINT ( 'NONE', #72 ) ;
#98 = EDGE_LOOP ( 'NONE', ( #81, #168 ) ) ;
#99 = ORIENTED_EDGE ( 'NONE', *, *, #180, .F. ) ;
#100 = EDGE_CURVE ( 'NONE', #290, #123, #216, .T. ) ;
#101 = EDGE_LOOP ( 'NONE', ( #295, #223, #284, #196 ) ) ;
#102 = CLOSED_SHELL ( 'NONE', ( #12, #204, #56, #268, #110, #277, #163, #22, #133 ) ) ;
#103 = ORIENTED_EDGE ( 'NONE', *, *, #80, .F. ) ;
#104 = VERTEX_POINT ( 'NONE', #47 ) ;
#105 = CARTESIAN_POINT ( 'NONE',  ( 9.375000000000000000, 0.0000000000000000000, 0.0000000000000000000 ) ) ;
#106 = ORIENTED_EDGE ( 'NONE', *, *, #155, .T. ) ;
#107 = DIRECTION ( 'NONE',  ( -1.000000000000000000, -0.0000000000000000000, -0.0000000000000000000 ) ) ;
#108 = ADVANCED_BREP_SHAPE_REPRESENTATION ( 'ACS-6', ( #195, #210 ), #136 ) ;
#109 = LINE ( 'NONE', #293, #33 ) ;
#110 = ADVANCED_FACE ( 'NONE', ( #251 ), #201, .T. ) ;
#111 = DIRECTION ( 'NONE',  ( 1.000000000000000000, 0.0000000000000000000, 0.0000000000000000000 ) ) ;
#112 = CARTESIAN_POINT ( 'NONE',  ( 0.0000000000000000000, 0.0000000000000000000, -1.515625000000000000 ) ) ;
#113 = AXIS2_PLACEMENT_3D ( 'NONE', #179, #229, #90 ) ;
#114 = DIRECTION ( 'NONE',  ( 0.0000000000000000000, 0.0000000000000000000, 1.000000000000000000 ) ) ;
#115 = FACE_BOUND ( 'NONE', #98, .T. ) ;
#116 = DIRECTION ( 'NONE',  ( 0.0000000000000000000, 0.0000000000000000000, 1.000000000000000000 ) ) ;
#117 = PRODUCT ( 'ACS-6', 'ACS-6', '', ( #36 ) ) ;
#118 = PRODUCT_DEFINITION_FORMATION_WITH_SPECIFIED_SOURCE ( 'ANY', '', #117, .NOT_KNOWN. ) ;
#119 = ORIENTED_EDGE ( 'NONE', *, *, #100, .T. ) ;
#120 = SHAPE_DEFINITION_REPRESENTATION ( #166, #108 ) ;
#121 = EDGE_CURVE ( 'NONE', #8, #6, #28, .T. ) ;
#122 = FILL_AREA_STYLE_COLOUR ( '', #7 ) ;
#123 = VERTEX_POINT ( 'NONE', #232 ) ;
#124 = COLOUR_RGB ( '',0.7921568627450980005, 0.8196078431372548767, 0.9333333333333333481 ) ;
#125 = CARTESIAN_POINT ( 'NONE',  ( 3.875000000000000444, 3.673940397442058882E-16, -2.999999999999999556 ) ) ;
#126 = FILL_AREA_STYLE ('',( #122 ) ) ;
#127 = CYLINDRICAL_SURFACE ( 'NONE', #165, 1.515625000000000000 ) ;
#128 = DIRECTION ( 'NONE',  ( 1.000000000000000000, -0.0000000000000000000, -0.0000000000000000000 ) ) ;
#129 = SURFACE_STYLE_USAGE ( .BOTH. , #69 ) ;
#130 = AXIS2_PLACEMENT_3D ( 'NONE', #283, #27, #73 ) ;
#131 = EDGE_CURVE ( 'NONE', #269, #247, #212, .T. ) ;
#132 = DIRECTION ( 'NONE',  ( -1.000000000000000000, -0.0000000000000000000, -0.0000000000000000000 ) ) ;
#133 = ADVANCED_FACE ( 'NONE', ( #254 ), #127, .F. ) ;
#134 = DIRECTION ( 'NONE',  ( 0.0000000000000000000, 0.0000000000000000000, 1.000000000000000000 ) ) ;
#135 = FACE_BOUND ( 'NONE', #171, .T. ) ;
#136 =( GEOMETRIC_REPRESENTATION_CONTEXT ( 3 ) GLOBAL_UNCERTAINTY_ASSIGNED_CONTEXT ( ( #235 ) ) GLOBAL_UNIT_ASSIGNED_CONTEXT ( ( #14, #62, #246 ) ) REPRESENTATION_CONTEXT ( 'NONE', 'WORKASPACE' ) );
#137 = CARTESIAN_POINT ( 'NONE',  ( 9.375000000000000000, 0.0000000000000000000, 2.000000000000000000 ) ) ;
#138 = LENGTH_MEASURE_WITH_UNIT ( LENGTH_MEASURE( 0.02539999999999999897 ), #231 );
#139 = PRODUCT_DEFINITION ( 'UNKNOWN', '', #118, #91 ) ;
#140 = MECHANICAL_DESIGN_GEOMETRIC_PRESENTATION_REPRESENTATION (  '', ( #301 ), #57 ) ;
#141 = AXIS2_PLACEMENT_3D ( 'NONE', #153, #128, #292 ) ;
#142 = VERTEX_POINT ( 'NONE', #280 ) ;
#143 = ORIENTED_EDGE ( 'NONE', *, *, #100, .F. ) ;
#144 = AXIS2_PLACEMENT_3D ( 'NONE', #259, #162, #54 ) ;
#145 = ORIENTED_EDGE ( 'NONE', *, *, #23, .T. ) ;
#146 = APPLICATION_PROTOCOL_DEFINITION ( 'draft international standard', 'automotive_design', 1998, #213 ) ;
#147 = ORIENTED_EDGE ( 'NONE', *, *, #32, .T. ) ;
#148 = ORIENTED_EDGE ( 'NONE', *, *, #63, .F. ) ;
#149 = VERTEX_POINT ( 'NONE', #227 ) ;
#150 =( NAMED_UNIT ( * ) PLANE_ANGLE_UNIT ( ) SI_UNIT ( $, .RADIAN. ) );
#151 = AXIS2_PLACEMENT_3D ( 'NONE', #18, #88, #24 ) ;
#152 = CARTESIAN_POINT ( 'NONE',  ( 3.875000000000000444, 0.0000000000000000000, 1.999999999999999778 ) ) ;
#153 = CARTESIAN_POINT ( 'NONE',  ( 0.0000000000000000000, 0.0000000000000000000, 0.0000000000000000000 ) ) ;
#154 = CYLINDRICAL_SURFACE ( 'NONE', #173, 2.000000000000000000 ) ;
#155 = EDGE_CURVE ( 'NONE', #104, #9, #249, .T. ) ;
#156 = DIRECTION ( 'NONE',  ( -1.000000000000000000, -0.0000000000000000000, -0.0000000000000000000 ) ) ;
#157 = DIRECTION ( 'NONE',  ( 0.0000000000000000000, 0.0000000000000000000, 1.000000000000000000 ) ) ;
#158 = LINE ( 'NONE', #205, #2 ) ;
#159 = CIRCLE ( 'NONE', #291, 1.515625000000000000 ) ;
#160 =( CONVERSION_BASED_UNIT ( 'INCH', #138 ) LENGTH_UNIT ( ) NAMED_UNIT ( #272 ) );
#161 = DIRECTION ( 'NONE',  ( -0.0000000000000000000, 0.0000000000000000000, 1.000000000000000000 ) ) ;
#162 = DIRECTION ( 'NONE',  ( 1.000000000000000000, 0.0000000000000000000, 0.0000000000000000000 ) ) ;
#163 = ADVANCED_FACE ( 'NONE', ( #202 ), #299, .T. ) ;
#164 = PRESENTATION_LAYER_ASSIGNMENT (  '', '', ( #301 ) ) ;
#165 = AXIS2_PLACEMENT_3D ( 'NONE', #296, #93, #184 ) ;
#166 = PRODUCT_DEFINITION_SHAPE ( 'NONE', 'NONE',  #139 ) ;
#167 = ORIENTED_EDGE ( 'NONE', *, *, #180, .T. ) ;
#168 = ORIENTED_EDGE ( 'NONE', *, *, #76, .F. ) ;
#169 =( NAMED_UNIT ( * ) SI_UNIT ( $, .STERADIAN. ) SOLID_ANGLE_UNIT ( ) );
#170 = AXIS2_PLACEMENT_3D ( 'NONE', #1, #261, #281 ) ;
#171 = EDGE_LOOP ( 'NONE', ( #221, #106 ) ) ;
#172 = LENGTH_MEASURE_WITH_UNIT ( LENGTH_MEASURE( 0.02539999999999999897 ), #75 );
#173 = AXIS2_PLACEMENT_3D ( 'NONE', #233, #89, #157 ) ;
#174 = EDGE_LOOP ( 'NONE', ( #217, #61 ) ) ;
#175 = PRESENTATION_STYLE_ASSIGNMENT (( #10 ) ) ;
#176 = PLANE ( 'NONE',  #225 ) ;
#177 = DIRECTION ( 'NONE',  ( -1.000000000000000000, -0.0000000000000000000, -0.0000000000000000000 ) ) ;
#178 = FACE_BOUND ( 'NONE', #265, .T. ) ;
#179 = CARTESIAN_POINT ( 'NONE',  ( 3.875000000000000444, 0.0000000000000000000, 0.0000000000000000000 ) ) ;
#180 = EDGE_CURVE ( 'NONE', #123, #104, #182, .T. ) ;
#181 = FILL_AREA_STYLE_COLOUR ( '', #124 ) ;
#182 = LINE ( 'NONE', #276, #285 ) ;
#183 = CYLINDRICAL_SURFACE ( 'NONE', #224, 2.999999999999999556 ) ;
#184 = DIRECTION ( 'NONE',  ( 0.0000000000000000000, 0.0000000000000000000, -1.000000000000000000 ) ) ;
#185 = PLANE ( 'NONE',  #170 ) ;
#186 = DIRECTION ( 'NONE',  ( 0.0000000000000000000, 0.0000000000000000000, 1.000000000000000000 ) ) ;
#187 = CIRCLE ( 'NONE', #256, 1.515625000000000000 ) ;
#188 = EDGE_CURVE ( 'NONE', #8, #247, #297, .T. ) ;
#189 = ORIENTED_EDGE ( 'NONE', *, *, #188, .T. ) ;
#190 = AXIS2_PLACEMENT_3D ( 'NONE', #278, #203, #41 ) ;
#191 = EDGE_LOOP ( 'NONE', ( #99, #242, #19, #78 ) ) ;
#192 = DIRECTION ( 'NONE',  ( 0.0000000000000000000, 0.0000000000000000000, 1.000000000000000000 ) ) ;
#193 = ORIENTED_EDGE ( 'NONE', *, *, #215, .F. ) ;
#194 =( CONVERSION_BASED_UNIT ( 'INCH', #35 ) LENGTH_UNIT ( ) NAMED_UNIT ( #294 ) );
#195 = MANIFOLD_SOLID_BREP ( 'Cut-Extrude1', #102 ) ;
#196 = ORIENTED_EDGE ( 'NONE', *, *, #244, .F. ) ;
#197 = CIRCLE ( 'NONE', #49, 2.999999999999999556 ) ;
#198 = CYLINDRICAL_SURFACE ( 'NONE', #141, 1.515625000000000000 ) ;
#199 = DIRECTION ( 'NONE',  ( 0.0000000000000000000, 0.0000000000000000000, 1.000000000000000000 ) ) ;
#200 = FACE_OUTER_BOUND ( 'NONE', #101, .T. ) ;
#201 = CYLINDRICAL_SURFACE ( 'NONE', #302, 2.000000000000000000 ) ;
#202 = FACE_OUTER_BOUND ( 'NONE', #38, .T. ) ;
#203 = DIRECTION ( 'NONE',  ( -1.000000000000000000, -0.0000000000000000000, -0.0000000000000000000 ) ) ;
#204 = ADVANCED_FACE ( 'NONE', ( #239 ), #183, .T. ) ;
#205 = CARTESIAN_POINT ( 'NONE',  ( 0.0000000000000000000, 0.0000000000000000000, -1.515625000000000000 ) ) ;
#206 = UNCERTAINTY_MEASURE_WITH_UNIT (LENGTH_MEASURE( 1.000000000000000082E-05 ), #194, 'distance_accuracy_value', 'NONE');
#207 = DIRECTION ( 'NONE',  ( 0.0000000000000000000, 0.0000000000000000000, 1.000000000000000000 ) ) ;
#208 = VECTOR ( 'NONE', #55, 39.37007874015748143 ) ;
#209 = CARTESIAN_POINT ( 'NONE',  ( 0.0000000000000000000, 0.0000000000000000000, 2.999999999999999112 ) ) ;
#210 = AXIS2_PLACEMENT_3D ( 'NONE', #11, #192, #266 ) ;
#211 = CIRCLE ( 'NONE', #15, 1.515625000000000000 ) ;
#212 = CIRCLE ( 'NONE', #77, 2.999999999999999112 ) ;
#213 = APPLICATION_CONTEXT ( 'automotive_design' ) ;
#214 = DIRECTION ( 'NONE',  ( -1.000000000000000000, -0.0000000000000000000, -0.0000000000000000000 ) ) ;
#215 = EDGE_CURVE ( 'NONE', #142, #97, #257, .T. ) ;
#216 = CIRCLE ( 'NONE', #82, 2.000000000000000000 ) ;
#217 = ORIENTED_EDGE ( 'NONE', *, *, #243, .T. ) ;
#218 = VERTEX_POINT ( 'NONE', #112 ) ;
#219 = PRESENTATION_LAYER_ASSIGNMENT (  '', '', ( #274 ) ) ;
#220 = SURFACE_SIDE_STYLE ('',( #84 ) ) ;
#221 = ORIENTED_EDGE ( 'NONE', *, *, #238, .T. ) ;
#222 = EDGE_CURVE ( 'NONE', #123, #290, #92, .T. ) ;
#223 = ORIENTED_EDGE ( 'NONE', *, *, #215, .T. ) ;
#224 = AXIS2_PLACEMENT_3D ( 'NONE', #279, #25, #116 ) ;
#225 = AXIS2_PLACEMENT_3D ( 'NONE', #271, #65, #228 ) ;
#226 = CARTESIAN_POINT ( 'NONE',  ( 3.875000000000000444, 0.0000000000000000000, 2.999999999999999556 ) ) ;
#227 = CARTESIAN_POINT ( 'NONE',  ( 9.375000000000000000, 0.0000000000000000000, -1.515625000000000000 ) ) ;
#228 = DIRECTION ( 'NONE',  ( 0.0000000000000000000, 0.0000000000000000000, -1.000000000000000000 ) ) ;
#229 = DIRECTION ( 'NONE',  ( -1.000000000000000000, -0.0000000000000000000, -0.0000000000000000000 ) ) ;
#230 = AXIS2_PLACEMENT_3D ( 'NONE', #50, #31, #186 ) ;
#231 =( LENGTH_UNIT ( ) NAMED_UNIT ( * ) SI_UNIT ( $, .METRE. ) );
#232 = CARTESIAN_POINT ( 'NONE',  ( 9.375000000000000000, 2.449293598294706414E-16, -2.000000000000000000 ) ) ;
#233 = CARTESIAN_POINT ( 'NONE',  ( 0.0000000000000000000, 0.0000000000000000000, 0.0000000000000000000 ) ) ;
#234 =( NAMED_UNIT ( * ) SI_UNIT ( $, .STERADIAN. ) SOLID_ANGLE_UNIT ( ) );
#235 = UNCERTAINTY_MEASURE_WITH_UNIT (LENGTH_MEASURE( 1.000000000000000082E-05 ), #14, 'distance_accuracy_value', 'NONE');
#236 = CARTESIAN_POINT ( 'NONE',  ( 3.875000000000000444, 1.999999999999999778, 0.0000000000000000000 ) ) ;
#237 = LINE ( 'NONE', #30, #20 ) ;
#238 = EDGE_CURVE ( 'NONE', #9, #104, #264, .T. ) ;
#239 = FACE_OUTER_BOUND ( 'NONE', #262, .T. ) ;
#240 = ORIENTED_EDGE ( 'NONE', *, *, #23, .F. ) ;
#241 = ORIENTED_EDGE ( 'NONE', *, *, #287, .T. ) ;
#242 = ORIENTED_EDGE ( 'NONE', *, *, #222, .T. ) ;
#243 = EDGE_CURVE ( 'NONE', #247, #269, #96, .T. ) ;
#244 = EDGE_CURVE ( 'NONE', #218, #149, #158, .T. ) ;
#245 = ORIENTED_EDGE ( 'NONE', *, *, #238, .F. ) ;
#246 =( NAMED_UNIT ( * ) SI_UNIT ( $, .STERADIAN. ) SOLID_ANGLE_UNIT ( ) );
#247 = VERTEX_POINT ( 'NONE', #209 ) ;
#248 = DIRECTION ( 'NONE',  ( -1.000000000000000000, -0.0000000000000000000, -0.0000000000000000000 ) ) ;
#249 = CIRCLE ( 'NONE', #113, 1.999999999999999778 ) ;
#250 = DIRECTION ( 'NONE',  ( 1.000000000000000000, 0.0000000000000000000, 0.0000000000000000000 ) ) ;
#251 = FACE_OUTER_BOUND ( 'NONE', #191, .T. ) ;
#252 = DIRECTION ( 'NONE',  ( 1.000000000000000000, 0.0000000000000000000, 0.0000000000000000000 ) ) ;
#253 = SURFACE_STYLE_FILL_AREA ( #43 ) ;
#254 = FACE_OUTER_BOUND ( 'NONE', #83, .T. ) ;
#255 = DIRECTION ( 'NONE',  ( 0.0000000000000000000, 0.0000000000000000000, 1.000000000000000000 ) ) ;
#256 = AXIS2_PLACEMENT_3D ( 'NONE', #44, #252, #68 ) ;
#257 = LINE ( 'NONE', #3, #208 ) ;
#258 = CARTESIAN_POINT ( 'NONE',  ( 0.0000000000000000000, 3.673940397442058389E-16, -2.999999999999999112 ) ) ;
#259 = CARTESIAN_POINT ( 'NONE',  ( 9.375000000000000000, 0.0000000000000000000, 0.0000000000000000000 ) ) ;
#260 =( GEOMETRIC_REPRESENTATION_CONTEXT ( 3 ) GLOBAL_UNCERTAINTY_ASSIGNED_CONTEXT ( ( #206 ) ) GLOBAL_UNIT_ASSIGNED_CONTEXT ( ( #194, #150, #169 ) ) REPRESENTATION_CONTEXT ( 'NONE', 'WORKASPACE' ) );
#261 = DIRECTION ( 'NONE',  ( -1.000000000000000000, 0.0000000000000000000, -0.0000000000000000000 ) ) ;
#262 = EDGE_LOOP ( 'NONE', ( #263, #58, #17, #37 ) ) ;
#263 = ORIENTED_EDGE ( 'NONE', *, *, #121, .T. ) ;
#264 = CIRCLE ( 'NONE', #60, 1.999999999999999778 ) ;
#265 = EDGE_LOOP ( 'NONE', ( #145, #147 ) ) ;
#266 = DIRECTION ( 'NONE',  ( 1.000000000000000000, 0.0000000000000000000, 0.0000000000000000000 ) ) ;
#267 = PRODUCT_RELATED_PRODUCT_CATEGORY ( 'part', '', ( #117 ) ) ;
#268 = ADVANCED_FACE ( 'NONE', ( #115, #303 ), #185, .F. ) ;
#269 = VERTEX_POINT ( 'NONE', #258 ) ;
#270 = EDGE_LOOP ( 'NONE', ( #119, #167, #245, #286 ) ) ;
#271 = CARTESIAN_POINT ( 'NONE',  ( 0.0000000000000000000, 2.999999999999999112, 0.0000000000000000000 ) ) ;
#272 = DIMENSIONAL_EXPONENTS ( 1.000000000000000000, 0.0000000000000000000, 0.0000000000000000000, 0.0000000000000000000, 0.0000000000000000000, 0.0000000000000000000, 0.0000000000000000000 ) ;
#273 = DIRECTION ( 'NONE',  ( -1.000000000000000000, -0.0000000000000000000, -0.0000000000000000000 ) ) ;
#274 = STYLED_ITEM ( 'NONE', ( #175 ), #108 ) ;
#275 = DIRECTION ( 'NONE',  ( -1.000000000000000000, -0.0000000000000000000, -0.0000000000000000000 ) ) ;
#276 = CARTESIAN_POINT ( 'NONE',  ( 0.0000000000000000000, 2.449293598294706414E-16, -2.000000000000000000 ) ) ;
#277 = ADVANCED_FACE ( 'NONE', ( #52, #135 ), #74, .F. ) ;
#278 = CARTESIAN_POINT ( 'NONE',  ( 3.875000000000000444, 0.0000000000000000000, 0.0000000000000000000 ) ) ;
#279 = CARTESIAN_POINT ( 'NONE',  ( 0.0000000000000000000, 0.0000000000000000000, 0.0000000000000000000 ) ) ;
#280 = CARTESIAN_POINT ( 'NONE',  ( 0.0000000000000000000, 1.856105304957707054E-16, 1.515625000000000000 ) ) ;
#281 = DIRECTION ( 'NONE',  ( -0.0000000000000000000, 0.0000000000000000000, 1.000000000000000000 ) ) ;
#282 = CIRCLE ( 'NONE', #144, 1.515625000000000000 ) ;
#283 = CARTESIAN_POINT ( 'NONE',  ( 0.0000000000000000000, 0.0000000000000000000, 0.0000000000000000000 ) ) ;
#284 = ORIENTED_EDGE ( 'NONE', *, *, #76, .T. ) ;
#285 = VECTOR ( 'NONE', #273, 39.37007874015748143 ) ;
#286 = ORIENTED_EDGE ( 'NONE', *, *, #298, .F. ) ;
#287 = EDGE_CURVE ( 'NONE', #149, #97, #282, .T. ) ;
#288 = ORIENTED_EDGE ( 'NONE', *, *, #222, .F. ) ;
#289 = APPLICATION_PROTOCOL_DEFINITION ( 'draft international standard', 'automotive_design', 1998, #59 ) ;
#290 = VERTEX_POINT ( 'NONE', #137 ) ;
#291 = AXIS2_PLACEMENT_3D ( 'NONE', #105, #111, #26 ) ;
#292 = DIRECTION ( 'NONE',  ( 0.0000000000000000000, 0.0000000000000000000, -1.000000000000000000 ) ) ;
#293 = CARTESIAN_POINT ( 'NONE',  ( 0.0000000000000000000, 3.673940397442058882E-16, -2.999999999999999556 ) ) ;
#294 = DIMENSIONAL_EXPONENTS ( 1.000000000000000000, 0.0000000000000000000, 0.0000000000000000000, 0.0000000000000000000, 0.0000000000000000000, 0.0000000000000000000, 0.0000000000000000000 ) ;
#295 = ORIENTED_EDGE ( 'NONE', *, *, #32, .F. ) ;
#296 = CARTESIAN_POINT ( 'NONE',  ( 0.0000000000000000000, 0.0000000000000000000, 0.0000000000000000000 ) ) ;
#297 = LINE ( 'NONE', #66, #5 ) ;
#298 = EDGE_CURVE ( 'NONE', #290, #9, #237, .T. ) ;
#299 = CYLINDRICAL_SURFACE ( 'NONE', #151, 2.999999999999999556 ) ;
#300 = CARTESIAN_POINT ( 'NONE',  ( 0.0000000000000000000, 0.0000000000000000000, 0.0000000000000000000 ) ) ;
#301 = STYLED_ITEM ( 'NONE', ( #21 ), #195 ) ;
#302 = AXIS2_PLACEMENT_3D ( 'NONE', #300, #248, #199 ) ;
#303 = FACE_OUTER_BOUND ( 'NONE', #13, .T. ) ;
ENDSEC;
END-ISO-10303-21;
