ISO-10303-21;
HEADER;
FILE_DESCRIPTION (( 'STEP AP214' ),
    '1' );
FILE_NAME ('ACS-12.STEP',
    '2020-10-26T23:45:15',
    ( '' ),
    ( '' ),
    'SwSTEP 2.0',
    'SolidWorks 2019',
    '' );
FILE_SCHEMA (( 'AUTOMOTIVE_DESIGN' ));
ENDSEC;

DATA;
#1 = EDGE_CURVE ( 'NONE', #281, #260, #242, .T. ) ;
#2 = CIRCLE ( 'NONE', #163, 1.999999999999999778 ) ;
#3 = CIRCLE ( 'NONE', #250, 6.000000000000000888 ) ;
#4 = AXIS2_PLACEMENT_3D ( 'NONE', #148, #127, #103 ) ;
#5 = ORIENTED_EDGE ( 'NONE', *, *, #47, .T. ) ;
#6 = DIRECTION ( 'NONE',  ( -1.000000000000000000, -0.0000000000000000000, -0.0000000000000000000 ) ) ;
#7 = VERTEX_POINT ( 'NONE', #296 ) ;
#8 = VERTEX_POINT ( 'NONE', #149 ) ;
#9 = DIRECTION ( 'NONE',  ( -1.000000000000000000, -0.0000000000000000000, -0.0000000000000000000 ) ) ;
#10 = EDGE_CURVE ( 'NONE', #216, #281, #86, .T. ) ;
#11 = DIRECTION ( 'NONE',  ( 0.0000000000000000000, 0.0000000000000000000, 1.000000000000000000 ) ) ;
#12 = ORIENTED_EDGE ( 'NONE', *, *, #10, .F. ) ;
#13 = ORIENTED_EDGE ( 'NONE', *, *, #275, .T. ) ;
#14 = DIRECTION ( 'NONE',  ( 1.000000000000000000, -0.0000000000000000000, -0.0000000000000000000 ) ) ;
#15 = FILL_AREA_STYLE_COLOUR ( '', #294 ) ;
#16 = DIRECTION ( 'NONE',  ( 0.0000000000000000000, 0.0000000000000000000, 1.000000000000000000 ) ) ;
#17 = ORIENTED_EDGE ( 'NONE', *, *, #134, .F. ) ;
#18 = CARTESIAN_POINT ( 'NONE',  ( 0.0000000000000000000, 2.449293598294706414E-16, -2.000000000000000000 ) ) ;
#19 = CIRCLE ( 'NONE', #181, 6.000000000000000888 ) ;
#20 = PLANE ( 'NONE',  #76 ) ;
#21 = CARTESIAN_POINT ( 'NONE',  ( 0.0000000000000000000, 1.856105304957707054E-16, 1.515625000000000000 ) ) ;
#22 = AXIS2_PLACEMENT_3D ( 'NONE', #259, #58, #238 ) ;
#23 = PRODUCT ( 'ACS-12', 'ACS-12', '', ( #225 ) ) ;
#24 = CIRCLE ( 'NONE', #272, 6.000000000000000888 ) ;
#25 = ORIENTED_EDGE ( 'NONE', *, *, #47, .F. ) ;
#26 = AXIS2_PLACEMENT_3D ( 'NONE', #169, #54, #284 ) ;
#27 = CIRCLE ( 'NONE', #227, 2.000000000000000000 ) ;
#28 = CARTESIAN_POINT ( 'NONE',  ( 3.875000000000000444, 0.0000000000000000000, 0.0000000000000000000 ) ) ;
#29 = VERTEX_POINT ( 'NONE', #138 ) ;
#30 = FACE_OUTER_BOUND ( 'NONE', #125, .T. ) ;
#31 = CARTESIAN_POINT ( 'NONE',  ( 9.375000000000000000, 0.0000000000000000000, 0.0000000000000000000 ) ) ;
#32 = ORIENTED_EDGE ( 'NONE', *, *, #275, .F. ) ;
#33 = CARTESIAN_POINT ( 'NONE',  ( 0.0000000000000000000, 6.000000000000000888, 0.0000000000000000000 ) ) ;
#34 = DIRECTION ( 'NONE',  ( 0.0000000000000000000, 0.0000000000000000000, 1.000000000000000000 ) ) ;
#35 = EDGE_CURVE ( 'NONE', #200, #214, #229, .T. ) ;
#36 = CARTESIAN_POINT ( 'NONE',  ( 0.0000000000000000000, 0.0000000000000000000, 0.0000000000000000000 ) ) ;
#37 = ORIENTED_EDGE ( 'NONE', *, *, #231, .T. ) ;
#38 = DIRECTION ( 'NONE',  ( -1.000000000000000000, -0.0000000000000000000, -0.0000000000000000000 ) ) ;
#39 =( CONVERSION_BASED_UNIT ( 'INCH', #175 ) LENGTH_UNIT ( ) NAMED_UNIT ( #190 ) );
#40 = ORIENTED_EDGE ( 'NONE', *, *, #110, .T. ) ;
#41 = DIRECTION ( 'NONE',  ( -1.000000000000000000, 0.0000000000000000000, -0.0000000000000000000 ) ) ;
#42 = AXIS2_PLACEMENT_3D ( 'NONE', #33, #285, #288 ) ;
#43 = FACE_OUTER_BOUND ( 'NONE', #161, .T. ) ;
#44 = ADVANCED_FACE ( 'NONE', ( #162 ), #102, .F. ) ;
#45 = DIRECTION ( 'NONE',  ( 0.0000000000000000000, 0.0000000000000000000, -1.000000000000000000 ) ) ;
#46 = MECHANICAL_DESIGN_GEOMETRIC_PRESENTATION_REPRESENTATION (  '', ( #278 ), #145 ) ;
#47 = EDGE_CURVE ( 'NONE', #214, #200, #2, .T. ) ;
#48 = VECTOR ( 'NONE', #199, 39.37007874015748143 ) ;
#49 = VECTOR ( 'NONE', #38, 39.37007874015748143 ) ;
#50 = EDGE_LOOP ( 'NONE', ( #140, #184 ) ) ;
#51 = ADVANCED_FACE ( 'NONE', ( #118, #59 ), #172, .F. ) ;
#52 = PLANE ( 'NONE',  #99 ) ;
#53 = EDGE_LOOP ( 'NONE', ( #212, #113 ) ) ;
#54 = DIRECTION ( 'NONE',  ( -1.000000000000000000, -0.0000000000000000000, -0.0000000000000000000 ) ) ;
#55 = ORIENTED_EDGE ( 'NONE', *, *, #105, .F. ) ;
#56 = FACE_OUTER_BOUND ( 'NONE', #170, .T. ) ;
#57 = ORIENTED_EDGE ( 'NONE', *, *, #150, .T. ) ;
#58 = DIRECTION ( 'NONE',  ( -1.000000000000000000, -0.0000000000000000000, -0.0000000000000000000 ) ) ;
#59 = FACE_OUTER_BOUND ( 'NONE', #53, .T. ) ;
#60 = LINE ( 'NONE', #121, #289 ) ;
#61 = ORIENTED_EDGE ( 'NONE', *, *, #166, .F. ) ;
#62 = CARTESIAN_POINT ( 'NONE',  ( 9.375000000000000000, 0.0000000000000000000, -1.515625000000000000 ) ) ;
#63 = CARTESIAN_POINT ( 'NONE',  ( 3.875000000000000444, 0.0000000000000000000, 1.999999999999999778 ) ) ;
#64 = CARTESIAN_POINT ( 'NONE',  ( 0.0000000000000000000, 0.0000000000000000000, 0.0000000000000000000 ) ) ;
#65 = SURFACE_STYLE_FILL_AREA ( #101 ) ;
#66 = SURFACE_SIDE_STYLE ('',( #271 ) ) ;
#67 = PRESENTATION_LAYER_ASSIGNMENT (  '', '', ( #262 ) ) ;
#68 = COLOUR_RGB ( '',0.7921568627450980005, 0.8196078431372548767, 0.9333333333333333481 ) ;
#69 = ORIENTED_EDGE ( 'NONE', *, *, #1, .T. ) ;
#70 = DIRECTION ( 'NONE',  ( 0.0000000000000000000, 0.0000000000000000000, 1.000000000000000000 ) ) ;
#71 = EDGE_LOOP ( 'NONE', ( #115, #13, #40, #25 ) ) ;
#72 = CYLINDRICAL_SURFACE ( 'NONE', #26, 2.000000000000000000 ) ;
#73 = DIRECTION ( 'NONE',  ( -1.000000000000000000, 0.0000000000000000000, -0.0000000000000000000 ) ) ;
#74 = ORIENTED_EDGE ( 'NONE', *, *, #279, .F. ) ;
#75 = CARTESIAN_POINT ( 'NONE',  ( 3.875000000000000444, 0.0000000000000000000, 0.0000000000000000000 ) ) ;
#76 = AXIS2_PLACEMENT_3D ( 'NONE', #269, #41, #130 ) ;
#77 = PRESENTATION_STYLE_ASSIGNMENT (( #293 ) ) ;
#78 =( LENGTH_UNIT ( ) NAMED_UNIT ( * ) SI_UNIT ( $, .METRE. ) );
#79 = CARTESIAN_POINT ( 'NONE',  ( 0.0000000000000000000, 7.347880794884120722E-16, -6.000000000000000888 ) ) ;
#80 =( LENGTH_UNIT ( ) NAMED_UNIT ( * ) SI_UNIT ( $, .METRE. ) );
#81 = EDGE_LOOP ( 'NONE', ( #182, #37, #176, #17 ) ) ;
#82 = CARTESIAN_POINT ( 'NONE',  ( 0.0000000000000000000, 0.0000000000000000000, 6.000000000000000888 ) ) ;
#83 = ADVANCED_FACE ( 'NONE', ( #56 ), #167, .F. ) ;
#84 =( CONVERSION_BASED_UNIT ( 'INCH', #301 ) LENGTH_UNIT ( ) NAMED_UNIT ( #141 ) );
#85 = CARTESIAN_POINT ( 'NONE',  ( 9.375000000000000000, 1.856105304957707054E-16, 1.515625000000000000 ) ) ;
#86 = CIRCLE ( 'NONE', #154, 1.515625000000000000 ) ;
#87 = ADVANCED_FACE ( 'NONE', ( #30 ), #218, .T. ) ;
#88 = UNCERTAINTY_MEASURE_WITH_UNIT (LENGTH_MEASURE( 1.000000000000000082E-05 ), #84, 'distance_accuracy_value', 'NONE');
#89 = AXIS2_PLACEMENT_3D ( 'NONE', #64, #126, #174 ) ;
#90 = ADVANCED_FACE ( 'NONE', ( #97, #263 ), #52, .F. ) ;
#91 = ORIENTED_EDGE ( 'NONE', *, *, #193, .F. ) ;
#92 = DIRECTION ( 'NONE',  ( 0.0000000000000000000, 0.0000000000000000000, -1.000000000000000000 ) ) ;
#93 = CARTESIAN_POINT ( 'NONE',  ( 0.0000000000000000000, 0.0000000000000000000, 0.0000000000000000000 ) ) ;
#94 = APPLICATION_CONTEXT ( 'automotive_design' ) ;
#95 = LENGTH_MEASURE_WITH_UNIT ( LENGTH_MEASURE( 0.02539999999999999897 ), #213 );
#96 = ORIENTED_EDGE ( 'NONE', *, *, #135, .F. ) ;
#97 = FACE_BOUND ( 'NONE', #299, .T. ) ;
#98 = CARTESIAN_POINT ( 'NONE',  ( 0.0000000000000000000, 0.0000000000000000000, 0.0000000000000000000 ) ) ;
#99 = AXIS2_PLACEMENT_3D ( 'NONE', #142, #73, #147 ) ;
#100 = DIRECTION ( 'NONE',  ( 1.000000000000000000, -0.0000000000000000000, -0.0000000000000000000 ) ) ;
#101 = FILL_AREA_STYLE ('',( #270 ) ) ;
#102 = CYLINDRICAL_SURFACE ( 'NONE', #129, 1.515625000000000000 ) ;
#103 = DIRECTION ( 'NONE',  ( 0.0000000000000000000, 0.0000000000000000000, 1.000000000000000000 ) ) ;
#104 = ORIENTED_EDGE ( 'NONE', *, *, #279, .T. ) ;
#105 = EDGE_CURVE ( 'NONE', #281, #216, #205, .T. ) ;
#106 = LINE ( 'NONE', #18, #157 ) ;
#107 = CARTESIAN_POINT ( 'NONE',  ( 9.375000000000000000, 0.0000000000000000000, 0.0000000000000000000 ) ) ;
#108 =( NAMED_UNIT ( * ) PLANE_ANGLE_UNIT ( ) SI_UNIT ( $, .RADIAN. ) );
#109 = AXIS2_PLACEMENT_3D ( 'NONE', #36, #261, #197 ) ;
#110 = EDGE_CURVE ( 'NONE', #137, #200, #60, .T. ) ;
#111 = PRODUCT_DEFINITION_SHAPE ( 'NONE', 'NONE',  #209 ) ;
#112 = VECTOR ( 'NONE', #100, 39.37007874015748143 ) ;
#113 = ORIENTED_EDGE ( 'NONE', *, *, #134, .T. ) ;
#114 = DIRECTION ( 'NONE',  ( -1.000000000000000000, -0.0000000000000000000, -0.0000000000000000000 ) ) ;
#115 = ORIENTED_EDGE ( 'NONE', *, *, #187, .F. ) ;
#116 = DIMENSIONAL_EXPONENTS ( 1.000000000000000000, 0.0000000000000000000, 0.0000000000000000000, 0.0000000000000000000, 0.0000000000000000000, 0.0000000000000000000, 0.0000000000000000000 ) ;
#117 =( CONVERSION_BASED_UNIT ( 'INCH', #95 ) LENGTH_UNIT ( ) NAMED_UNIT ( #116 ) );
#118 = FACE_BOUND ( 'NONE', #50, .T. ) ;
#119 =( NAMED_UNIT ( * ) PLANE_ANGLE_UNIT ( ) SI_UNIT ( $, .RADIAN. ) );
#120 = ORIENTED_EDGE ( 'NONE', *, *, #193, .T. ) ;
#121 = CARTESIAN_POINT ( 'NONE',  ( 0.0000000000000000000, 0.0000000000000000000, 2.000000000000000000 ) ) ;
#122 = CYLINDRICAL_SURFACE ( 'NONE', #89, 6.000000000000000888 ) ;
#123 = APPLICATION_PROTOCOL_DEFINITION ( 'draft international standard', 'automotive_design', 1998, #94 ) ;
#124 = DIRECTION ( 'NONE',  ( -1.000000000000000000, -0.0000000000000000000, -0.0000000000000000000 ) ) ;
#125 = EDGE_LOOP ( 'NONE', ( #253, #297, #164, #257 ) ) ;
#126 = DIRECTION ( 'NONE',  ( -1.000000000000000000, -0.0000000000000000000, -0.0000000000000000000 ) ) ;
#127 = DIRECTION ( 'NONE',  ( -1.000000000000000000, -0.0000000000000000000, -0.0000000000000000000 ) ) ;
#128 = SHAPE_DEFINITION_REPRESENTATION ( #111, #206 ) ;
#129 = AXIS2_PLACEMENT_3D ( 'NONE', #255, #14, #92 ) ;
#130 = DIRECTION ( 'NONE',  ( -0.0000000000000000000, 0.0000000000000000000, 1.000000000000000000 ) ) ;
#131 = APPLICATION_PROTOCOL_DEFINITION ( 'draft international standard', 'automotive_design', 1998, #274 ) ;
#132 = FACE_BOUND ( 'NONE', #283, .T. ) ;
#133 = AXIS2_PLACEMENT_3D ( 'NONE', #264, #248, #45 ) ;
#134 = EDGE_CURVE ( 'NONE', #7, #8, #24, .T. ) ;
#135 = EDGE_CURVE ( 'NONE', #8, #7, #3, .T. ) ;
#136 =( GEOMETRIC_REPRESENTATION_CONTEXT ( 3 ) GLOBAL_UNCERTAINTY_ASSIGNED_CONTEXT ( ( #277 ) ) GLOBAL_UNIT_ASSIGNED_CONTEXT ( ( #117, #119, #144 ) ) REPRESENTATION_CONTEXT ( 'NONE', 'WORKASPACE' ) );
#137 = VERTEX_POINT ( 'NONE', #298 ) ;
#138 = CARTESIAN_POINT ( 'NONE',  ( 3.875000000000001776, 0.0000000000000000000, 6.000000000000000888 ) ) ;
#139 = ORIENTED_EDGE ( 'NONE', *, *, #231, .F. ) ;
#140 = ORIENTED_EDGE ( 'NONE', *, *, #105, .T. ) ;
#141 = DIMENSIONAL_EXPONENTS ( 1.000000000000000000, 0.0000000000000000000, 0.0000000000000000000, 0.0000000000000000000, 0.0000000000000000000, 0.0000000000000000000, 0.0000000000000000000 ) ;
#142 = CARTESIAN_POINT ( 'NONE',  ( 9.375000000000000000, 0.0000000000000000000, 0.0000000000000000000 ) ) ;
#143 = EDGE_CURVE ( 'NONE', #29, #8, #266, .T. ) ;
#144 =( NAMED_UNIT ( * ) SI_UNIT ( $, .STERADIAN. ) SOLID_ANGLE_UNIT ( ) );
#145 =( GEOMETRIC_REPRESENTATION_CONTEXT ( 3 ) GLOBAL_UNCERTAINTY_ASSIGNED_CONTEXT ( ( #230 ) ) GLOBAL_UNIT_ASSIGNED_CONTEXT ( ( #39, #151, #244 ) ) REPRESENTATION_CONTEXT ( 'NONE', 'WORKASPACE' ) );
#146 = EDGE_LOOP ( 'NONE', ( #198, #57, #96, #232 ) ) ;
#147 = DIRECTION ( 'NONE',  ( -0.0000000000000000000, 0.0000000000000000000, 1.000000000000000000 ) ) ;
#148 = CARTESIAN_POINT ( 'NONE',  ( 3.875000000000001776, 0.0000000000000000000, 0.0000000000000000000 ) ) ;
#149 = CARTESIAN_POINT ( 'NONE',  ( 0.0000000000000000000, 0.0000000000000000000, 6.000000000000000888 ) ) ;
#150 = EDGE_CURVE ( 'NONE', #235, #7, #152, .T. ) ;
#151 =( NAMED_UNIT ( * ) PLANE_ANGLE_UNIT ( ) SI_UNIT ( $, .RADIAN. ) );
#152 = LINE ( 'NONE', #79, #49 ) ;
#153 = CARTESIAN_POINT ( 'NONE',  ( 3.875000000000001776, 0.0000000000000000000, 0.0000000000000000000 ) ) ;
#154 = AXIS2_PLACEMENT_3D ( 'NONE', #93, #282, #191 ) ;
#155 = CYLINDRICAL_SURFACE ( 'NONE', #196, 6.000000000000000888 ) ;
#156 =( GEOMETRIC_REPRESENTATION_CONTEXT ( 3 ) GLOBAL_UNCERTAINTY_ASSIGNED_CONTEXT ( ( #88 ) ) GLOBAL_UNIT_ASSIGNED_CONTEXT ( ( #84, #108, #295 ) ) REPRESENTATION_CONTEXT ( 'NONE', 'WORKASPACE' ) );
#157 = VECTOR ( 'NONE', #245, 39.37007874015748143 ) ;
#158 = ADVANCED_FACE ( 'NONE', ( #300 ), #122, .T. ) ;
#159 = AXIS2_PLACEMENT_3D ( 'NONE', #268, #246, #241 ) ;
#160 = PRODUCT_DEFINITION_CONTEXT ( 'detailed design', #94, 'design' ) ;
#161 = EDGE_LOOP ( 'NONE', ( #61, #139 ) ) ;
#162 = FACE_OUTER_BOUND ( 'NONE', #168, .T. ) ;
#163 = AXIS2_PLACEMENT_3D ( 'NONE', #28, #124, #11 ) ;
#164 = ORIENTED_EDGE ( 'NONE', *, *, #35, .F. ) ;
#165 = CARTESIAN_POINT ( 'NONE',  ( 9.375000000000000000, 2.449293598294706414E-16, -2.000000000000000000 ) ) ;
#166 = EDGE_CURVE ( 'NONE', #29, #235, #19, .T. ) ;
#167 = CYLINDRICAL_SURFACE ( 'NONE', #109, 1.515625000000000000 ) ;
#168 = EDGE_LOOP ( 'NONE', ( #12, #237, #120, #239 ) ) ;
#169 = CARTESIAN_POINT ( 'NONE',  ( 0.0000000000000000000, 0.0000000000000000000, 0.0000000000000000000 ) ) ;
#170 = EDGE_LOOP ( 'NONE', ( #280, #55, #69, #104 ) ) ;
#171 = PRESENTATION_LAYER_ASSIGNMENT (  '', '', ( #278 ) ) ;
#172 = PLANE ( 'NONE',  #42 ) ;
#173 = ADVANCED_FACE ( 'NONE', ( #247 ), #155, .T. ) ;
#174 = DIRECTION ( 'NONE',  ( 0.0000000000000000000, 0.0000000000000000000, 1.000000000000000000 ) ) ;
#175 = LENGTH_MEASURE_WITH_UNIT ( LENGTH_MEASURE( 0.02539999999999999897 ), #80 );
#176 = ORIENTED_EDGE ( 'NONE', *, *, #143, .T. ) ;
#177 = CARTESIAN_POINT ( 'NONE',  ( 0.0000000000000000000, 0.0000000000000000000, 0.0000000000000000000 ) ) ;
#178 = FILL_AREA_STYLE ('',( #15 ) ) ;
#179 = ADVANCED_FACE ( 'NONE', ( #43, #132 ), #20, .F. ) ;
#180 = CIRCLE ( 'NONE', #226, 1.515625000000000000 ) ;
#181 = AXIS2_PLACEMENT_3D ( 'NONE', #153, #201, #222 ) ;
#182 = ORIENTED_EDGE ( 'NONE', *, *, #150, .F. ) ;
#183 = ORIENTED_EDGE ( 'NONE', *, *, #35, .T. ) ;
#184 = ORIENTED_EDGE ( 'NONE', *, *, #10, .T. ) ;
#185 = CARTESIAN_POINT ( 'NONE',  ( 0.0000000000000000000, 0.0000000000000000000, 0.0000000000000000000 ) ) ;
#186 = ORIENTED_EDGE ( 'NONE', *, *, #252, .F. ) ;
#187 = EDGE_CURVE ( 'NONE', #290, #214, #106, .T. ) ;
#188 = DIRECTION ( 'NONE',  ( 0.0000000000000000000, 0.0000000000000000000, 1.000000000000000000 ) ) ;
#189 = VECTOR ( 'NONE', #221, 39.37007874015748143 ) ;
#190 = DIMENSIONAL_EXPONENTS ( 1.000000000000000000, 0.0000000000000000000, 0.0000000000000000000, 0.0000000000000000000, 0.0000000000000000000, 0.0000000000000000000, 0.0000000000000000000 ) ;
#191 = DIRECTION ( 'NONE',  ( 0.0000000000000000000, 0.0000000000000000000, -1.000000000000000000 ) ) ;
#192 = DIRECTION ( 'NONE',  ( 0.0000000000000000000, 0.0000000000000000000, -1.000000000000000000 ) ) ;
#193 = EDGE_CURVE ( 'NONE', #254, #260, #251, .T. ) ;
#194 = DIRECTION ( 'NONE',  ( -1.000000000000000000, -0.0000000000000000000, -0.0000000000000000000 ) ) ;
#195 = PRESENTATION_STYLE_ASSIGNMENT (( #303 ) ) ;
#196 = AXIS2_PLACEMENT_3D ( 'NONE', #177, #194, #302 ) ;
#197 = DIRECTION ( 'NONE',  ( 0.0000000000000000000, 0.0000000000000000000, -1.000000000000000000 ) ) ;
#198 = ORIENTED_EDGE ( 'NONE', *, *, #166, .T. ) ;
#199 = DIRECTION ( 'NONE',  ( -1.000000000000000000, -0.0000000000000000000, -0.0000000000000000000 ) ) ;
#200 = VERTEX_POINT ( 'NONE', #63 ) ;
#201 = DIRECTION ( 'NONE',  ( -1.000000000000000000, -0.0000000000000000000, -0.0000000000000000000 ) ) ;
#202 = DIRECTION ( 'NONE',  ( -1.000000000000000000, -0.0000000000000000000, -0.0000000000000000000 ) ) ;
#203 = EDGE_CURVE ( 'NONE', #216, #254, #243, .T. ) ;
#204 = CLOSED_SHELL ( 'NONE', ( #44, #158, #87, #90, #267, #179, #173, #51, #83 ) ) ;
#205 = CIRCLE ( 'NONE', #249, 1.515625000000000000 ) ;
#206 = ADVANCED_BREP_SHAPE_REPRESENTATION ( 'ACS-12', ( #265, #159 ), #156 ) ;
#207 = PRODUCT_DEFINITION_FORMATION_WITH_SPECIFIED_SOURCE ( 'ANY', '', #23, .NOT_KNOWN. ) ;
#208 = CIRCLE ( 'NONE', #4, 6.000000000000000888 ) ;
#209 = PRODUCT_DEFINITION ( 'UNKNOWN', '', #207, #160 ) ;
#210 = DIRECTION ( 'NONE',  ( 0.0000000000000000000, 0.0000000000000000000, -1.000000000000000000 ) ) ;
#211 = CARTESIAN_POINT ( 'NONE',  ( 0.0000000000000000000, 0.0000000000000000000, 0.0000000000000000000 ) ) ;
#212 = ORIENTED_EDGE ( 'NONE', *, *, #135, .T. ) ;
#213 =( LENGTH_UNIT ( ) NAMED_UNIT ( * ) SI_UNIT ( $, .METRE. ) );
#214 = VERTEX_POINT ( 'NONE', #219 ) ;
#215 = DIRECTION ( 'NONE',  ( -1.000000000000000000, -0.0000000000000000000, -0.0000000000000000000 ) ) ;
#216 = VERTEX_POINT ( 'NONE', #21 ) ;
#217 = DIRECTION ( 'NONE',  ( 1.000000000000000000, 0.0000000000000000000, 0.0000000000000000000 ) ) ;
#218 = CYLINDRICAL_SURFACE ( 'NONE', #276, 2.000000000000000000 ) ;
#219 = CARTESIAN_POINT ( 'NONE',  ( 3.875000000000000444, 2.449293598294705921E-16, -1.999999999999999778 ) ) ;
#220 = SURFACE_SIDE_STYLE ('',( #65 ) ) ;
#221 = DIRECTION ( 'NONE',  ( 1.000000000000000000, -0.0000000000000000000, -0.0000000000000000000 ) ) ;
#222 = DIRECTION ( 'NONE',  ( 0.0000000000000000000, 0.0000000000000000000, 1.000000000000000000 ) ) ;
#223 = CARTESIAN_POINT ( 'NONE',  ( 3.875000000000001776, 7.347880794884120722E-16, -6.000000000000000888 ) ) ;
#224 = CARTESIAN_POINT ( 'NONE',  ( 0.0000000000000000000, 1.856105304957707054E-16, 1.515625000000000000 ) ) ;
#225 = PRODUCT_CONTEXT ( 'NONE', #274, 'mechanical' ) ;
#226 = AXIS2_PLACEMENT_3D ( 'NONE', #31, #217, #210 ) ;
#227 = AXIS2_PLACEMENT_3D ( 'NONE', #107, #202, #34 ) ;
#228 = PRODUCT_RELATED_PRODUCT_CATEGORY ( 'part', '', ( #23 ) ) ;
#229 = CIRCLE ( 'NONE', #256, 1.999999999999999778 ) ;
#230 = UNCERTAINTY_MEASURE_WITH_UNIT (LENGTH_MEASURE( 1.000000000000000082E-05 ), #39, 'distance_accuracy_value', 'NONE');
#231 = EDGE_CURVE ( 'NONE', #235, #29, #208, .T. ) ;
#232 = ORIENTED_EDGE ( 'NONE', *, *, #143, .F. ) ;
#233 = CARTESIAN_POINT ( 'NONE',  ( 0.0000000000000000000, 0.0000000000000000000, 0.0000000000000000000 ) ) ;
#234 = CARTESIAN_POINT ( 'NONE',  ( 0.0000000000000000000, 0.0000000000000000000, -1.515625000000000000 ) ) ;
#235 = VERTEX_POINT ( 'NONE', #223 ) ;
#236 = DIRECTION ( 'NONE',  ( 1.000000000000000000, 0.0000000000000000000, 0.0000000000000000000 ) ) ;
#237 = ORIENTED_EDGE ( 'NONE', *, *, #203, .T. ) ;
#238 = DIRECTION ( 'NONE',  ( 0.0000000000000000000, 0.0000000000000000000, 1.000000000000000000 ) ) ;
#239 = ORIENTED_EDGE ( 'NONE', *, *, #1, .F. ) ;
#240 = DIRECTION ( 'NONE',  ( -1.000000000000000000, -0.0000000000000000000, -0.0000000000000000000 ) ) ;
#241 = DIRECTION ( 'NONE',  ( 1.000000000000000000, 0.0000000000000000000, 0.0000000000000000000 ) ) ;
#242 = LINE ( 'NONE', #291, #189 ) ;
#243 = LINE ( 'NONE', #224, #112 ) ;
#244 =( NAMED_UNIT ( * ) SI_UNIT ( $, .STERADIAN. ) SOLID_ANGLE_UNIT ( ) );
#245 = DIRECTION ( 'NONE',  ( -1.000000000000000000, -0.0000000000000000000, -0.0000000000000000000 ) ) ;
#246 = DIRECTION ( 'NONE',  ( 0.0000000000000000000, 0.0000000000000000000, 1.000000000000000000 ) ) ;
#247 = FACE_OUTER_BOUND ( 'NONE', #81, .T. ) ;
#248 = DIRECTION ( 'NONE',  ( 1.000000000000000000, 0.0000000000000000000, 0.0000000000000000000 ) ) ;
#249 = AXIS2_PLACEMENT_3D ( 'NONE', #98, #236, #192 ) ;
#250 = AXIS2_PLACEMENT_3D ( 'NONE', #211, #9, #188 ) ;
#251 = CIRCLE ( 'NONE', #133, 1.515625000000000000 ) ;
#252 = EDGE_CURVE ( 'NONE', #137, #290, #27, .T. ) ;
#253 = ORIENTED_EDGE ( 'NONE', *, *, #252, .T. ) ;
#254 = VERTEX_POINT ( 'NONE', #85 ) ;
#255 = CARTESIAN_POINT ( 'NONE',  ( 0.0000000000000000000, 0.0000000000000000000, 0.0000000000000000000 ) ) ;
#256 = AXIS2_PLACEMENT_3D ( 'NONE', #75, #215, #16 ) ;
#257 = ORIENTED_EDGE ( 'NONE', *, *, #110, .F. ) ;
#258 = DIRECTION ( 'NONE',  ( 0.0000000000000000000, 0.0000000000000000000, 1.000000000000000000 ) ) ;
#259 = CARTESIAN_POINT ( 'NONE',  ( 9.375000000000000000, 0.0000000000000000000, 0.0000000000000000000 ) ) ;
#260 = VERTEX_POINT ( 'NONE', #62 ) ;
#261 = DIRECTION ( 'NONE',  ( 1.000000000000000000, -0.0000000000000000000, -0.0000000000000000000 ) ) ;
#262 = STYLED_ITEM ( 'NONE', ( #77 ), #265 ) ;
#263 = FACE_OUTER_BOUND ( 'NONE', #287, .T. ) ;
#264 = CARTESIAN_POINT ( 'NONE',  ( 9.375000000000000000, 0.0000000000000000000, 0.0000000000000000000 ) ) ;
#265 = MANIFOLD_SOLID_BREP ( 'Cut-Extrude1', #204 ) ;
#266 = LINE ( 'NONE', #82, #48 ) ;
#267 = ADVANCED_FACE ( 'NONE', ( #286 ), #72, .T. ) ;
#268 = CARTESIAN_POINT ( 'NONE',  ( 0.0000000000000000000, 0.0000000000000000000, 0.0000000000000000000 ) ) ;
#269 = CARTESIAN_POINT ( 'NONE',  ( 3.875000000000001332, 1.999999999999999778, 0.0000000000000000000 ) ) ;
#270 = FILL_AREA_STYLE_COLOUR ( '', #68 ) ;
#271 = SURFACE_STYLE_FILL_AREA ( #178 ) ;
#272 = AXIS2_PLACEMENT_3D ( 'NONE', #185, #114, #70 ) ;
#273 = MECHANICAL_DESIGN_GEOMETRIC_PRESENTATION_REPRESENTATION (  '', ( #262 ), #136 ) ;
#274 = APPLICATION_CONTEXT ( 'automotive_design' ) ;
#275 = EDGE_CURVE ( 'NONE', #290, #137, #292, .T. ) ;
#276 = AXIS2_PLACEMENT_3D ( 'NONE', #233, #240, #258 ) ;
#277 = UNCERTAINTY_MEASURE_WITH_UNIT (LENGTH_MEASURE( 1.000000000000000082E-05 ), #117, 'distance_accuracy_value', 'NONE');
#278 = STYLED_ITEM ( 'NONE', ( #195 ), #206 ) ;
#279 = EDGE_CURVE ( 'NONE', #260, #254, #180, .T. ) ;
#280 = ORIENTED_EDGE ( 'NONE', *, *, #203, .F. ) ;
#281 = VERTEX_POINT ( 'NONE', #234 ) ;
#282 = DIRECTION ( 'NONE',  ( 1.000000000000000000, 0.0000000000000000000, 0.0000000000000000000 ) ) ;
#283 = EDGE_LOOP ( 'NONE', ( #183, #5 ) ) ;
#284 = DIRECTION ( 'NONE',  ( 0.0000000000000000000, 0.0000000000000000000, 1.000000000000000000 ) ) ;
#285 = DIRECTION ( 'NONE',  ( 1.000000000000000000, 0.0000000000000000000, 0.0000000000000000000 ) ) ;
#286 = FACE_OUTER_BOUND ( 'NONE', #71, .T. ) ;
#287 = EDGE_LOOP ( 'NONE', ( #186, #32 ) ) ;
#288 = DIRECTION ( 'NONE',  ( 0.0000000000000000000, 0.0000000000000000000, -1.000000000000000000 ) ) ;
#289 = VECTOR ( 'NONE', #6, 39.37007874015748143 ) ;
#290 = VERTEX_POINT ( 'NONE', #165 ) ;
#291 = CARTESIAN_POINT ( 'NONE',  ( 0.0000000000000000000, 0.0000000000000000000, -1.515625000000000000 ) ) ;
#292 = CIRCLE ( 'NONE', #22, 2.000000000000000000 ) ;
#293 = SURFACE_STYLE_USAGE ( .BOTH. , #66 ) ;
#294 = COLOUR_RGB ( '',0.7921568627450980005, 0.8196078431372548767, 0.9333333333333333481 ) ;
#295 =( NAMED_UNIT ( * ) SI_UNIT ( $, .STERADIAN. ) SOLID_ANGLE_UNIT ( ) );
#296 = CARTESIAN_POINT ( 'NONE',  ( 0.0000000000000000000, 7.347880794884120722E-16, -6.000000000000000888 ) ) ;
#297 = ORIENTED_EDGE ( 'NONE', *, *, #187, .T. ) ;
#298 = CARTESIAN_POINT ( 'NONE',  ( 9.375000000000000000, 0.0000000000000000000, 2.000000000000000000 ) ) ;
#299 = EDGE_LOOP ( 'NONE', ( #74, #91 ) ) ;
#300 = FACE_OUTER_BOUND ( 'NONE', #146, .T. ) ;
#301 = LENGTH_MEASURE_WITH_UNIT ( LENGTH_MEASURE( 0.02539999999999999897 ), #78 );
#302 = DIRECTION ( 'NONE',  ( 0.0000000000000000000, 0.0000000000000000000, 1.000000000000000000 ) ) ;
#303 = SURFACE_STYLE_USAGE ( .BOTH. , #220 ) ;
ENDSEC;
END-ISO-10303-21;
