ISO-10303-21;
HEADER;
FILE_DESCRIPTION (( 'STEP AP214' ),
    '1' );
FILE_NAME ('ACS-10.STEP',
    '2020-10-26T23:43:45',
    ( '' ),
    ( '' ),
    'SwSTEP 2.0',
    'SolidWorks 2019',
    '' );
FILE_SCHEMA (( 'AUTOMOTIVE_DESIGN' ));
ENDSEC;

DATA;
#1 = EDGE_LOOP ( 'NONE', ( #25, #140 ) ) ;
#2 = APPLICATION_PROTOCOL_DEFINITION ( 'draft international standard', 'automotive_design', 1998, #188 ) ;
#3 = VECTOR ( 'NONE', #149, 39.37007874015748143 ) ;
#4 = CARTESIAN_POINT ( 'NONE',  ( 3.875000000000000444, 0.0000000000000000000, 0.0000000000000000000 ) ) ;
#5 = DIRECTION ( 'NONE',  ( -1.000000000000000000, -0.0000000000000000000, -0.0000000000000000000 ) ) ;
#6 = PRODUCT_RELATED_PRODUCT_CATEGORY ( 'part', '', ( #282 ) ) ;
#7 = AXIS2_PLACEMENT_3D ( 'NONE', #14, #264, #66 ) ;
#8 = VECTOR ( 'NONE', #10, 39.37007874015748143 ) ;
#9 = CARTESIAN_POINT ( 'NONE',  ( 0.0000000000000000000, 0.0000000000000000000, 0.0000000000000000000 ) ) ;
#10 = DIRECTION ( 'NONE',  ( -1.000000000000000000, -0.0000000000000000000, -0.0000000000000000000 ) ) ;
#11 = EDGE_CURVE ( 'NONE', #72, #65, #289, .T. ) ;
#12 = VECTOR ( 'NONE', #301, 39.37007874015748143 ) ;
#13 = EDGE_LOOP ( 'NONE', ( #18, #247 ) ) ;
#14 = CARTESIAN_POINT ( 'NONE',  ( 9.375000000000000000, 0.0000000000000000000, 0.0000000000000000000 ) ) ;
#15 = ORIENTED_EDGE ( 'NONE', *, *, #220, .T. ) ;
#16 = DIRECTION ( 'NONE',  ( -1.000000000000000000, -0.0000000000000000000, -0.0000000000000000000 ) ) ;
#17 = CARTESIAN_POINT ( 'NONE',  ( 0.0000000000000000000, 0.0000000000000000000, -1.515625000000000000 ) ) ;
#18 = ORIENTED_EDGE ( 'NONE', *, *, #232, .T. ) ;
#19 = LENGTH_MEASURE_WITH_UNIT ( LENGTH_MEASURE( 0.02539999999999999897 ), #268 );
#20 = LINE ( 'NONE', #160, #12 ) ;
#21 = AXIS2_PLACEMENT_3D ( 'NONE', #145, #283, #230 ) ;
#22 = DIRECTION ( 'NONE',  ( 0.0000000000000000000, 0.0000000000000000000, 1.000000000000000000 ) ) ;
#23 = ORIENTED_EDGE ( 'NONE', *, *, #101, .T. ) ;
#24 = EDGE_CURVE ( 'NONE', #107, #216, #187, .T. ) ;
#25 = ORIENTED_EDGE ( 'NONE', *, *, #220, .F. ) ;
#26 = VECTOR ( 'NONE', #299, 39.37007874015748143 ) ;
#27 = ORIENTED_EDGE ( 'NONE', *, *, #154, .F. ) ;
#28 = ADVANCED_FACE ( 'NONE', ( #246, #139 ), #47, .F. ) ;
#29 = PRODUCT_DEFINITION_SHAPE ( 'NONE', 'NONE',  #209 ) ;
#30 = AXIS2_PLACEMENT_3D ( 'NONE', #179, #269, #68 ) ;
#31 = CYLINDRICAL_SURFACE ( 'NONE', #200, 2.000000000000000000 ) ;
#32 = CARTESIAN_POINT ( 'NONE',  ( 0.0000000000000000000, 0.0000000000000000000, 5.000000000000000000 ) ) ;
#33 = PRODUCT_DEFINITION_FORMATION_WITH_SPECIFIED_SOURCE ( 'ANY', '', #282, .NOT_KNOWN. ) ;
#34 = VECTOR ( 'NONE', #5, 39.37007874015748143 ) ;
#35 = DIRECTION ( 'NONE',  ( 0.0000000000000000000, 0.0000000000000000000, -1.000000000000000000 ) ) ;
#36 = DIRECTION ( 'NONE',  ( 1.000000000000000000, 0.0000000000000000000, 0.0000000000000000000 ) ) ;
#37 = ORIENTED_EDGE ( 'NONE', *, *, #229, .F. ) ;
#38 = AXIS2_PLACEMENT_3D ( 'NONE', #260, #291, #129 ) ;
#39 = ORIENTED_EDGE ( 'NONE', *, *, #134, .F. ) ;
#40 = CARTESIAN_POINT ( 'NONE',  ( 0.0000000000000000000, 0.0000000000000000000, 0.0000000000000000000 ) ) ;
#41 =( CONVERSION_BASED_UNIT ( 'INCH', #87 ) LENGTH_UNIT ( ) NAMED_UNIT ( #208 ) );
#42 = EDGE_LOOP ( 'NONE', ( #207, #238, #219, #113 ) ) ;
#43 = UNCERTAINTY_MEASURE_WITH_UNIT (LENGTH_MEASURE( 1.000000000000000082E-05 ), #136, 'distance_accuracy_value', 'NONE');
#44 = FACE_OUTER_BOUND ( 'NONE', #277, .T. ) ;
#45 = DIMENSIONAL_EXPONENTS ( 1.000000000000000000, 0.0000000000000000000, 0.0000000000000000000, 0.0000000000000000000, 0.0000000000000000000, 0.0000000000000000000, 0.0000000000000000000 ) ;
#46 = DIRECTION ( 'NONE',  ( 0.0000000000000000000, 0.0000000000000000000, 1.000000000000000000 ) ) ;
#47 = PLANE ( 'NONE',  #38 ) ;
#48 = VERTEX_POINT ( 'NONE', #62 ) ;
#49 = FACE_BOUND ( 'NONE', #13, .T. ) ;
#50 = DIRECTION ( 'NONE',  ( 0.0000000000000000000, 0.0000000000000000000, 1.000000000000000000 ) ) ;
#51 = ORIENTED_EDGE ( 'NONE', *, *, #232, .F. ) ;
#52 = ADVANCED_FACE ( 'NONE', ( #106 ), #195, .F. ) ;
#53 = AXIS2_PLACEMENT_3D ( 'NONE', #213, #121, #285 ) ;
#54 = ADVANCED_FACE ( 'NONE', ( #239 ), #150, .T. ) ;
#55 = DIRECTION ( 'NONE',  ( 0.0000000000000000000, 0.0000000000000000000, 1.000000000000000000 ) ) ;
#56 = CARTESIAN_POINT ( 'NONE',  ( 9.375000000000000000, 0.0000000000000000000, 2.000000000000000000 ) ) ;
#57 = DIRECTION ( 'NONE',  ( -1.000000000000000000, 0.0000000000000000000, -0.0000000000000000000 ) ) ;
#58 =( GEOMETRIC_REPRESENTATION_CONTEXT ( 3 ) GLOBAL_UNCERTAINTY_ASSIGNED_CONTEXT ( ( #43 ) ) GLOBAL_UNIT_ASSIGNED_CONTEXT ( ( #136, #141, #278 ) ) REPRESENTATION_CONTEXT ( 'NONE', 'WORKASPACE' ) );
#59 = AXIS2_PLACEMENT_3D ( 'NONE', #118, #231, #55 ) ;
#60 = CARTESIAN_POINT ( 'NONE',  ( 9.375000000000000000, 0.0000000000000000000, 0.0000000000000000000 ) ) ;
#61 = ORIENTED_EDGE ( 'NONE', *, *, #294, .T. ) ;
#62 = CARTESIAN_POINT ( 'NONE',  ( 9.375000000000000000, 2.449293598294706414E-16, -2.000000000000000000 ) ) ;
#63 = FILL_AREA_STYLE_COLOUR ( '', #297 ) ;
#64 = AXIS2_PLACEMENT_3D ( 'NONE', #40, #16, #22 ) ;
#65 = VERTEX_POINT ( 'NONE', #112 ) ;
#66 = DIRECTION ( 'NONE',  ( 0.0000000000000000000, 0.0000000000000000000, 1.000000000000000000 ) ) ;
#67 = ORIENTED_EDGE ( 'NONE', *, *, #88, .F. ) ;
#68 = DIRECTION ( 'NONE',  ( 0.0000000000000000000, 0.0000000000000000000, -1.000000000000000000 ) ) ;
#69 = EDGE_LOOP ( 'NONE', ( #39, #61, #90, #37 ) ) ;
#70 = ORIENTED_EDGE ( 'NONE', *, *, #288, .T. ) ;
#71 = CARTESIAN_POINT ( 'NONE',  ( 9.375000000000000000, 0.0000000000000000000, -1.515625000000000000 ) ) ;
#72 = VERTEX_POINT ( 'NONE', #71 ) ;
#73 = STYLED_ITEM ( 'NONE', ( #184 ), #97 ) ;
#74 = AXIS2_PLACEMENT_3D ( 'NONE', #60, #123, #193 ) ;
#75 = DIRECTION ( 'NONE',  ( -1.000000000000000000, -0.0000000000000000000, -0.0000000000000000000 ) ) ;
#76 = FACE_OUTER_BOUND ( 'NONE', #241, .T. ) ;
#77 = EDGE_CURVE ( 'NONE', #153, #107, #110, .T. ) ;
#78 = DIRECTION ( 'NONE',  ( 0.0000000000000000000, 0.0000000000000000000, -1.000000000000000000 ) ) ;
#79 = ADVANCED_FACE ( 'NONE', ( #205 ), #89, .T. ) ;
#80 = FILL_AREA_STYLE ('',( #261 ) ) ;
#81 = ORIENTED_EDGE ( 'NONE', *, *, #77, .F. ) ;
#82 = CARTESIAN_POINT ( 'NONE',  ( 0.0000000000000000000, 0.0000000000000000000, 0.0000000000000000000 ) ) ;
#83 = EDGE_LOOP ( 'NONE', ( #142, #93 ) ) ;
#84 = CARTESIAN_POINT ( 'NONE',  ( 0.0000000000000000000, 0.0000000000000000000, 0.0000000000000000000 ) ) ;
#85 = VERTEX_POINT ( 'NONE', #138 ) ;
#86 = CIRCLE ( 'NONE', #21, 5.000000000000000000 ) ;
#87 = LENGTH_MEASURE_WITH_UNIT ( LENGTH_MEASURE( 0.02539999999999999897 ), #155 );
#88 = EDGE_CURVE ( 'NONE', #128, #65, #20, .T. ) ;
#89 = CYLINDRICAL_SURFACE ( 'NONE', #270, 5.000000000000000000 ) ;
#90 = ORIENTED_EDGE ( 'NONE', *, *, #77, .T. ) ;
#91 = DIRECTION ( 'NONE',  ( -1.000000000000000000, -0.0000000000000000000, -0.0000000000000000000 ) ) ;
#92 = DIRECTION ( 'NONE',  ( -1.000000000000000000, -0.0000000000000000000, -0.0000000000000000000 ) ) ;
#93 = ORIENTED_EDGE ( 'NONE', *, *, #117, .F. ) ;
#94 =( LENGTH_UNIT ( ) NAMED_UNIT ( * ) SI_UNIT ( $, .METRE. ) );
#95 = STYLED_ITEM ( 'NONE', ( #173 ), #276 ) ;
#96 = AXIS2_PLACEMENT_3D ( 'NONE', #4, #254, #167 ) ;
#97 = ADVANCED_BREP_SHAPE_REPRESENTATION ( 'ACS-10', ( #276, #137 ), #212 ) ;
#98 = LINE ( 'NONE', #210, #122 ) ;
#99 = CARTESIAN_POINT ( 'NONE',  ( 0.0000000000000000000, 1.856105304957707054E-16, 1.515625000000000000 ) ) ;
#100 = CIRCLE ( 'NONE', #53, 1.999999999999999778 ) ;
#101 = EDGE_CURVE ( 'NONE', #262, #126, #116, .T. ) ;
#102 = PLANE ( 'NONE',  #147 ) ;
#103 = ADVANCED_FACE ( 'NONE', ( #49, #44 ), #221, .F. ) ;
#104 = CYLINDRICAL_SURFACE ( 'NONE', #143, 1.515625000000000000 ) ;
#105 =( NAMED_UNIT ( * ) SI_UNIT ( $, .STERADIAN. ) SOLID_ANGLE_UNIT ( ) );
#106 = FACE_OUTER_BOUND ( 'NONE', #111, .T. ) ;
#107 = VERTEX_POINT ( 'NONE', #156 ) ;
#108 = UNCERTAINTY_MEASURE_WITH_UNIT (LENGTH_MEASURE( 1.000000000000000082E-05 ), #41, 'distance_accuracy_value', 'NONE');
#109 = AXIS2_PLACEMENT_3D ( 'NONE', #245, #224, #252 ) ;
#110 = LINE ( 'NONE', #135, #26 ) ;
#111 = EDGE_LOOP ( 'NONE', ( #67, #51, #70, #197 ) ) ;
#112 = CARTESIAN_POINT ( 'NONE',  ( 9.375000000000000000, 1.856105304957707054E-16, 1.515625000000000000 ) ) ;
#113 = ORIENTED_EDGE ( 'NONE', *, *, #267, .F. ) ;
#114 = AXIS2_PLACEMENT_3D ( 'NONE', #82, #217, #172 ) ;
#115 = ORIENTED_EDGE ( 'NONE', *, *, #288, .F. ) ;
#116 = CIRCLE ( 'NONE', #286, 5.000000000000000000 ) ;
#117 = EDGE_CURVE ( 'NONE', #65, #72, #177, .T. ) ;
#118 = CARTESIAN_POINT ( 'NONE',  ( 3.875000000000000444, 0.0000000000000000000, 0.0000000000000000000 ) ) ;
#119 = LINE ( 'NONE', #211, #34 ) ;
#120 = AXIS2_PLACEMENT_3D ( 'NONE', #272, #183, #206 ) ;
#121 = DIRECTION ( 'NONE',  ( -1.000000000000000000, -0.0000000000000000000, -0.0000000000000000000 ) ) ;
#122 = VECTOR ( 'NONE', #166, 39.37007874015748143 ) ;
#123 = DIRECTION ( 'NONE',  ( -1.000000000000000000, -0.0000000000000000000, -0.0000000000000000000 ) ) ;
#124 = DIRECTION ( 'NONE',  ( 1.000000000000000000, -0.0000000000000000000, -0.0000000000000000000 ) ) ;
#125 = EDGE_CURVE ( 'NONE', #85, #300, #165, .T. ) ;
#126 = VERTEX_POINT ( 'NONE', #32 ) ;
#127 = LINE ( 'NONE', #17, #3 ) ;
#128 = VERTEX_POINT ( 'NONE', #99 ) ;
#129 = DIRECTION ( 'NONE',  ( -0.0000000000000000000, 0.0000000000000000000, 1.000000000000000000 ) ) ;
#130 =( NAMED_UNIT ( * ) PLANE_ANGLE_UNIT ( ) SI_UNIT ( $, .RADIAN. ) );
#131 = SURFACE_STYLE_FILL_AREA ( #199 ) ;
#132 = ORIENTED_EDGE ( 'NONE', *, *, #229, .T. ) ;
#133 = EDGE_CURVE ( 'NONE', #300, #85, #281, .T. ) ;
#134 = EDGE_CURVE ( 'NONE', #48, #216, #119, .T. ) ;
#135 = CARTESIAN_POINT ( 'NONE',  ( 0.0000000000000000000, 0.0000000000000000000, 2.000000000000000000 ) ) ;
#136 =( CONVERSION_BASED_UNIT ( 'INCH', #275 ) LENGTH_UNIT ( ) NAMED_UNIT ( #45 ) );
#137 = AXIS2_PLACEMENT_3D ( 'NONE', #227, #50, #271 ) ;
#138 = CARTESIAN_POINT ( 'NONE',  ( 3.875000000000000444, 0.0000000000000000000, 5.000000000000000000 ) ) ;
#139 = FACE_OUTER_BOUND ( 'NONE', #1, .T. ) ;
#140 = ORIENTED_EDGE ( 'NONE', *, *, #294, .F. ) ;
#141 =( NAMED_UNIT ( * ) PLANE_ANGLE_UNIT ( ) SI_UNIT ( $, .RADIAN. ) );
#142 = ORIENTED_EDGE ( 'NONE', *, *, #11, .F. ) ;
#143 = AXIS2_PLACEMENT_3D ( 'NONE', #287, #124, #171 ) ;
#144 = CARTESIAN_POINT ( 'NONE',  ( 0.0000000000000000000, 0.0000000000000000000, -1.515625000000000000 ) ) ;
#145 = CARTESIAN_POINT ( 'NONE',  ( 0.0000000000000000000, 0.0000000000000000000, 0.0000000000000000000 ) ) ;
#146 = CARTESIAN_POINT ( 'NONE',  ( 3.875000000000000444, 1.999999999999999778, 0.0000000000000000000 ) ) ;
#147 = AXIS2_PLACEMENT_3D ( 'NONE', #146, #57, #234 ) ;
#148 = CARTESIAN_POINT ( 'NONE',  ( 0.0000000000000000000, 6.123233995736766282E-16, -5.000000000000000000 ) ) ;
#149 = DIRECTION ( 'NONE',  ( 1.000000000000000000, -0.0000000000000000000, -0.0000000000000000000 ) ) ;
#150 = CYLINDRICAL_SURFACE ( 'NONE', #64, 5.000000000000000000 ) ;
#151 = FACE_OUTER_BOUND ( 'NONE', #69, .T. ) ;
#152 = EDGE_LOOP ( 'NONE', ( #27, #242, #228, #265 ) ) ;
#153 = VERTEX_POINT ( 'NONE', #56 ) ;
#154 = EDGE_CURVE ( 'NONE', #300, #262, #98, .T. ) ;
#155 =( LENGTH_UNIT ( ) NAMED_UNIT ( * ) SI_UNIT ( $, .METRE. ) );
#156 = CARTESIAN_POINT ( 'NONE',  ( 3.875000000000000444, 0.0000000000000000000, 1.999999999999999778 ) ) ;
#157 = SHAPE_DEFINITION_REPRESENTATION ( #29, #97 ) ;
#158 = CARTESIAN_POINT ( 'NONE',  ( 3.875000000000000444, 0.0000000000000000000, 0.0000000000000000000 ) ) ;
#159 = EDGE_LOOP ( 'NONE', ( #15, #273, #259, #81 ) ) ;
#160 = CARTESIAN_POINT ( 'NONE',  ( 0.0000000000000000000, 1.856105304957707054E-16, 1.515625000000000000 ) ) ;
#161 = SURFACE_SIDE_STYLE ('',( #180 ) ) ;
#162 = AXIS2_PLACEMENT_3D ( 'NONE', #158, #92, #303 ) ;
#163 = ORIENTED_EDGE ( 'NONE', *, *, #236, .F. ) ;
#164 = PRESENTATION_LAYER_ASSIGNMENT (  '', '', ( #95 ) ) ;
#165 = CIRCLE ( 'NONE', #96, 5.000000000000000000 ) ;
#166 = DIRECTION ( 'NONE',  ( -1.000000000000000000, -0.0000000000000000000, -0.0000000000000000000 ) ) ;
#167 = DIRECTION ( 'NONE',  ( 0.0000000000000000000, 0.0000000000000000000, 1.000000000000000000 ) ) ;
#168 = DIRECTION ( 'NONE',  ( 1.000000000000000000, 0.0000000000000000000, 0.0000000000000000000 ) ) ;
#169 = EDGE_CURVE ( 'NONE', #126, #262, #86, .T. ) ;
#170 = CIRCLE ( 'NONE', #7, 2.000000000000000000 ) ;
#171 = DIRECTION ( 'NONE',  ( 0.0000000000000000000, 0.0000000000000000000, -1.000000000000000000 ) ) ;
#172 = DIRECTION ( 'NONE',  ( 0.0000000000000000000, 0.0000000000000000000, -1.000000000000000000 ) ) ;
#173 = PRESENTATION_STYLE_ASSIGNMENT (( #244 ) ) ;
#174 = DIRECTION ( 'NONE',  ( 0.0000000000000000000, 0.0000000000000000000, 1.000000000000000000 ) ) ;
#175 = ORIENTED_EDGE ( 'NONE', *, *, #125, .F. ) ;
#176 =( NAMED_UNIT ( * ) SI_UNIT ( $, .STERADIAN. ) SOLID_ANGLE_UNIT ( ) );
#177 = CIRCLE ( 'NONE', #109, 1.515625000000000000 ) ;
#178 = PRODUCT_DEFINITION_CONTEXT ( 'detailed design', #263, 'design' ) ;
#179 = CARTESIAN_POINT ( 'NONE',  ( 0.0000000000000000000, 5.000000000000000000, 0.0000000000000000000 ) ) ;
#180 = SURFACE_STYLE_FILL_AREA ( #80 ) ;
#181 = ORIENTED_EDGE ( 'NONE', *, *, #88, .T. ) ;
#182 = DIRECTION ( 'NONE',  ( 0.0000000000000000000, 0.0000000000000000000, 1.000000000000000000 ) ) ;
#183 = DIRECTION ( 'NONE',  ( 1.000000000000000000, 0.0000000000000000000, 0.0000000000000000000 ) ) ;
#184 = PRESENTATION_STYLE_ASSIGNMENT (( #223 ) ) ;
#185 = VERTEX_POINT ( 'NONE', #144 ) ;
#186 = DIMENSIONAL_EXPONENTS ( 1.000000000000000000, 0.0000000000000000000, 0.0000000000000000000, 0.0000000000000000000, 0.0000000000000000000, 0.0000000000000000000, 0.0000000000000000000 ) ;
#187 = CIRCLE ( 'NONE', #162, 1.999999999999999778 ) ;
#188 = APPLICATION_CONTEXT ( 'automotive_design' ) ;
#189 = ADVANCED_FACE ( 'NONE', ( #192 ), #31, .T. ) ;
#190 = AXIS2_PLACEMENT_3D ( 'NONE', #9, #36, #78 ) ;
#191 = CARTESIAN_POINT ( 'NONE',  ( 0.0000000000000000000, 0.0000000000000000000, 0.0000000000000000000 ) ) ;
#192 = FACE_OUTER_BOUND ( 'NONE', #159, .T. ) ;
#193 = DIRECTION ( 'NONE',  ( 0.0000000000000000000, 0.0000000000000000000, 1.000000000000000000 ) ) ;
#194 = CARTESIAN_POINT ( 'NONE',  ( 0.0000000000000000000, 0.0000000000000000000, 0.0000000000000000000 ) ) ;
#195 = CYLINDRICAL_SURFACE ( 'NONE', #114, 1.515625000000000000 ) ;
#196 = DIRECTION ( 'NONE',  ( -1.000000000000000000, -0.0000000000000000000, -0.0000000000000000000 ) ) ;
#197 = ORIENTED_EDGE ( 'NONE', *, *, #11, .T. ) ;
#198 = COLOUR_RGB ( '',0.7921568627450980005, 0.8196078431372548767, 0.9333333333333333481 ) ;
#199 = FILL_AREA_STYLE ('',( #63 ) ) ;
#200 = AXIS2_PLACEMENT_3D ( 'NONE', #191, #75, #284 ) ;
#201 = CARTESIAN_POINT ( 'NONE',  ( 0.0000000000000000000, 0.0000000000000000000, 0.0000000000000000000 ) ) ;
#202 = APPLICATION_PROTOCOL_DEFINITION ( 'draft international standard', 'automotive_design', 1998, #263 ) ;
#203 = ADVANCED_FACE ( 'NONE', ( #76, #253 ), #102, .F. ) ;
#204 = EDGE_LOOP ( 'NONE', ( #290, #132 ) ) ;
#205 = FACE_OUTER_BOUND ( 'NONE', #42, .T. ) ;
#206 = DIRECTION ( 'NONE',  ( 0.0000000000000000000, 0.0000000000000000000, -1.000000000000000000 ) ) ;
#207 = ORIENTED_EDGE ( 'NONE', *, *, #125, .T. ) ;
#208 = DIMENSIONAL_EXPONENTS ( 1.000000000000000000, 0.0000000000000000000, 0.0000000000000000000, 0.0000000000000000000, 0.0000000000000000000, 0.0000000000000000000, 0.0000000000000000000 ) ;
#209 = PRODUCT_DEFINITION ( 'UNKNOWN', '', #33, #178 ) ;
#210 = CARTESIAN_POINT ( 'NONE',  ( 0.0000000000000000000, 6.123233995736766282E-16, -5.000000000000000000 ) ) ;
#211 = CARTESIAN_POINT ( 'NONE',  ( 0.0000000000000000000, 2.449293598294706414E-16, -2.000000000000000000 ) ) ;
#212 =( GEOMETRIC_REPRESENTATION_CONTEXT ( 3 ) GLOBAL_UNCERTAINTY_ASSIGNED_CONTEXT ( ( #108 ) ) GLOBAL_UNIT_ASSIGNED_CONTEXT ( ( #41, #218, #105 ) ) REPRESENTATION_CONTEXT ( 'NONE', 'WORKASPACE' ) );
#213 = CARTESIAN_POINT ( 'NONE',  ( 3.875000000000000444, 0.0000000000000000000, 0.0000000000000000000 ) ) ;
#214 = CIRCLE ( 'NONE', #266, 1.515625000000000000 ) ;
#215 = LINE ( 'NONE', #237, #8 ) ;
#216 = VERTEX_POINT ( 'NONE', #257 ) ;
#217 = DIRECTION ( 'NONE',  ( 1.000000000000000000, -0.0000000000000000000, -0.0000000000000000000 ) ) ;
#218 =( NAMED_UNIT ( * ) PLANE_ANGLE_UNIT ( ) SI_UNIT ( $, .RADIAN. ) );
#219 = ORIENTED_EDGE ( 'NONE', *, *, #169, .F. ) ;
#220 = EDGE_CURVE ( 'NONE', #153, #48, #258, .T. ) ;
#221 = PLANE ( 'NONE',  #30 ) ;
#222 = MECHANICAL_DESIGN_GEOMETRIC_PRESENTATION_REPRESENTATION (  '', ( #73 ), #58 ) ;
#223 = SURFACE_STYLE_USAGE ( .BOTH. , #161 ) ;
#224 = DIRECTION ( 'NONE',  ( 1.000000000000000000, 0.0000000000000000000, 0.0000000000000000000 ) ) ;
#225 = ORIENTED_EDGE ( 'NONE', *, *, #133, .F. ) ;
#226 = ORIENTED_EDGE ( 'NONE', *, *, #169, .T. ) ;
#227 = CARTESIAN_POINT ( 'NONE',  ( 0.0000000000000000000, 0.0000000000000000000, 0.0000000000000000000 ) ) ;
#228 = ORIENTED_EDGE ( 'NONE', *, *, #267, .T. ) ;
#229 = EDGE_CURVE ( 'NONE', #216, #107, #100, .T. ) ;
#230 = DIRECTION ( 'NONE',  ( 0.0000000000000000000, 0.0000000000000000000, 1.000000000000000000 ) ) ;
#231 = DIRECTION ( 'NONE',  ( -1.000000000000000000, -0.0000000000000000000, -0.0000000000000000000 ) ) ;
#232 = EDGE_CURVE ( 'NONE', #185, #128, #235, .T. ) ;
#233 =( GEOMETRIC_REPRESENTATION_CONTEXT ( 3 ) GLOBAL_UNCERTAINTY_ASSIGNED_CONTEXT ( ( #298 ) ) GLOBAL_UNIT_ASSIGNED_CONTEXT ( ( #240, #130, #176 ) ) REPRESENTATION_CONTEXT ( 'NONE', 'WORKASPACE' ) );
#234 = DIRECTION ( 'NONE',  ( -0.0000000000000000000, 0.0000000000000000000, 1.000000000000000000 ) ) ;
#235 = CIRCLE ( 'NONE', #190, 1.515625000000000000 ) ;
#236 = EDGE_CURVE ( 'NONE', #128, #185, #214, .T. ) ;
#237 = CARTESIAN_POINT ( 'NONE',  ( 0.0000000000000000000, 0.0000000000000000000, 5.000000000000000000 ) ) ;
#238 = ORIENTED_EDGE ( 'NONE', *, *, #154, .T. ) ;
#239 = FACE_OUTER_BOUND ( 'NONE', #152, .T. ) ;
#240 =( CONVERSION_BASED_UNIT ( 'INCH', #19 ) LENGTH_UNIT ( ) NAMED_UNIT ( #186 ) );
#241 = EDGE_LOOP ( 'NONE', ( #175, #225 ) ) ;
#242 = ORIENTED_EDGE ( 'NONE', *, *, #133, .T. ) ;
#243 = CYLINDRICAL_SURFACE ( 'NONE', #295, 2.000000000000000000 ) ;
#244 = SURFACE_STYLE_USAGE ( .BOTH. , #292 ) ;
#245 = CARTESIAN_POINT ( 'NONE',  ( 9.375000000000000000, 0.0000000000000000000, 0.0000000000000000000 ) ) ;
#246 = FACE_BOUND ( 'NONE', #83, .T. ) ;
#247 = ORIENTED_EDGE ( 'NONE', *, *, #236, .T. ) ;
#248 = CARTESIAN_POINT ( 'NONE',  ( 0.0000000000000000000, 0.0000000000000000000, 0.0000000000000000000 ) ) ;
#249 = CLOSED_SHELL ( 'NONE', ( #251, #79, #189, #28, #280, #203, #54, #103, #52 ) ) ;
#250 = ORIENTED_EDGE ( 'NONE', *, *, #117, .T. ) ;
#251 = ADVANCED_FACE ( 'NONE', ( #255 ), #104, .F. ) ;
#252 = DIRECTION ( 'NONE',  ( 0.0000000000000000000, 0.0000000000000000000, -1.000000000000000000 ) ) ;
#253 = FACE_BOUND ( 'NONE', #204, .T. ) ;
#254 = DIRECTION ( 'NONE',  ( -1.000000000000000000, -0.0000000000000000000, -0.0000000000000000000 ) ) ;
#255 = FACE_OUTER_BOUND ( 'NONE', #293, .T. ) ;
#256 = MECHANICAL_DESIGN_GEOMETRIC_PRESENTATION_REPRESENTATION (  '', ( #95 ), #233 ) ;
#257 = CARTESIAN_POINT ( 'NONE',  ( 3.875000000000000444, 2.449293598294705921E-16, -1.999999999999999778 ) ) ;
#258 = CIRCLE ( 'NONE', #74, 2.000000000000000000 ) ;
#259 = ORIENTED_EDGE ( 'NONE', *, *, #24, .F. ) ;
#260 = CARTESIAN_POINT ( 'NONE',  ( 9.375000000000000000, 0.0000000000000000000, 0.0000000000000000000 ) ) ;
#261 = FILL_AREA_STYLE_COLOUR ( '', #198 ) ;
#262 = VERTEX_POINT ( 'NONE', #148 ) ;
#263 = APPLICATION_CONTEXT ( 'automotive_design' ) ;
#264 = DIRECTION ( 'NONE',  ( -1.000000000000000000, -0.0000000000000000000, -0.0000000000000000000 ) ) ;
#265 = ORIENTED_EDGE ( 'NONE', *, *, #101, .F. ) ;
#266 = AXIS2_PLACEMENT_3D ( 'NONE', #194, #168, #35 ) ;
#267 = EDGE_CURVE ( 'NONE', #85, #126, #215, .T. ) ;
#268 =( LENGTH_UNIT ( ) NAMED_UNIT ( * ) SI_UNIT ( $, .METRE. ) );
#269 = DIRECTION ( 'NONE',  ( 1.000000000000000000, 0.0000000000000000000, 0.0000000000000000000 ) ) ;
#270 = AXIS2_PLACEMENT_3D ( 'NONE', #248, #274, #46 ) ;
#271 = DIRECTION ( 'NONE',  ( 1.000000000000000000, 0.0000000000000000000, 0.0000000000000000000 ) ) ;
#272 = CARTESIAN_POINT ( 'NONE',  ( 9.375000000000000000, 0.0000000000000000000, 0.0000000000000000000 ) ) ;
#273 = ORIENTED_EDGE ( 'NONE', *, *, #134, .T. ) ;
#274 = DIRECTION ( 'NONE',  ( -1.000000000000000000, -0.0000000000000000000, -0.0000000000000000000 ) ) ;
#275 = LENGTH_MEASURE_WITH_UNIT ( LENGTH_MEASURE( 0.02539999999999999897 ), #94 );
#276 = MANIFOLD_SOLID_BREP ( 'Cut-Extrude1', #249 ) ;
#277 = EDGE_LOOP ( 'NONE', ( #226, #23 ) ) ;
#278 =( NAMED_UNIT ( * ) SI_UNIT ( $, .STERADIAN. ) SOLID_ANGLE_UNIT ( ) );
#279 = PRESENTATION_LAYER_ASSIGNMENT (  '', '', ( #73 ) ) ;
#280 = ADVANCED_FACE ( 'NONE', ( #151 ), #243, .T. ) ;
#281 = CIRCLE ( 'NONE', #59, 5.000000000000000000 ) ;
#282 = PRODUCT ( 'ACS-10', 'ACS-10', '', ( #302 ) ) ;
#283 = DIRECTION ( 'NONE',  ( -1.000000000000000000, -0.0000000000000000000, -0.0000000000000000000 ) ) ;
#284 = DIRECTION ( 'NONE',  ( 0.0000000000000000000, 0.0000000000000000000, 1.000000000000000000 ) ) ;
#285 = DIRECTION ( 'NONE',  ( 0.0000000000000000000, 0.0000000000000000000, 1.000000000000000000 ) ) ;
#286 = AXIS2_PLACEMENT_3D ( 'NONE', #201, #91, #182 ) ;
#287 = CARTESIAN_POINT ( 'NONE',  ( 0.0000000000000000000, 0.0000000000000000000, 0.0000000000000000000 ) ) ;
#288 = EDGE_CURVE ( 'NONE', #185, #72, #127, .T. ) ;
#289 = CIRCLE ( 'NONE', #120, 1.515625000000000000 ) ;
#290 = ORIENTED_EDGE ( 'NONE', *, *, #24, .T. ) ;
#291 = DIRECTION ( 'NONE',  ( -1.000000000000000000, 0.0000000000000000000, -0.0000000000000000000 ) ) ;
#292 = SURFACE_SIDE_STYLE ('',( #131 ) ) ;
#293 = EDGE_LOOP ( 'NONE', ( #163, #181, #250, #115 ) ) ;
#294 = EDGE_CURVE ( 'NONE', #48, #153, #170, .T. ) ;
#295 = AXIS2_PLACEMENT_3D ( 'NONE', #84, #196, #174 ) ;
#296 = CARTESIAN_POINT ( 'NONE',  ( 3.875000000000000444, 6.123233995736766282E-16, -5.000000000000000000 ) ) ;
#297 = COLOUR_RGB ( '',0.7921568627450980005, 0.8196078431372548767, 0.9333333333333333481 ) ;
#298 = UNCERTAINTY_MEASURE_WITH_UNIT (LENGTH_MEASURE( 1.000000000000000082E-05 ), #240, 'distance_accuracy_value', 'NONE');
#299 = DIRECTION ( 'NONE',  ( -1.000000000000000000, -0.0000000000000000000, -0.0000000000000000000 ) ) ;
#300 = VERTEX_POINT ( 'NONE', #296 ) ;
#301 = DIRECTION ( 'NONE',  ( 1.000000000000000000, -0.0000000000000000000, -0.0000000000000000000 ) ) ;
#302 = PRODUCT_CONTEXT ( 'NONE', #188, 'mechanical' ) ;
#303 = DIRECTION ( 'NONE',  ( 0.0000000000000000000, 0.0000000000000000000, 1.000000000000000000 ) ) ;
ENDSEC;
END-ISO-10303-21;
