ISO-10303-21;
HEADER;
FILE_DESCRIPTION (( 'STEP AP214' ),
    '1' );
FILE_NAME ('AC-8.STEP',
    '2020-10-26T23:42:40',
    ( '' ),
    ( '' ),
    'SwSTEP 2.0',
    'SolidWorks 2019',
    '' );
FILE_SCHEMA (( 'AUTOMOTIVE_DESIGN' ));
ENDSEC;

DATA;
#1 = AXIS2_PLACEMENT_3D ( 'NONE', #83, #345, #288 ) ;
#2 = FACE_OUTER_BOUND ( 'NONE', #210, .T. ) ;
#3 = ORIENTED_EDGE ( 'NONE', *, *, #175, .F. ) ;
#4 = DIRECTION ( 'NONE',  ( -1.000000000000000000, -0.0000000000000000000, -0.0000000000000000000 ) ) ;
#5 = CIRCLE ( 'NONE', #86, 1.515625000000000000 ) ;
#6 = EDGE_LOOP ( 'NONE', ( #13, #339 ) ) ;
#7 = EDGE_CURVE ( 'NONE', #33, #332, #234, .T. ) ;
#8 = EDGE_LOOP ( 'NONE', ( #356, #182, #186, #216 ) ) ;
#9 = DIRECTION ( 'NONE',  ( 1.000000000000000000, -0.0000000000000000000, -0.0000000000000000000 ) ) ;
#10 = CIRCLE ( 'NONE', #160, 1.999999999999999778 ) ;
#11 = PRODUCT_DEFINITION_FORMATION_WITH_SPECIFIED_SOURCE ( 'ANY', '', #21, .NOT_KNOWN. ) ;
#12 = VERTEX_POINT ( 'NONE', #284 ) ;
#13 = ORIENTED_EDGE ( 'NONE', *, *, #58, .F. ) ;
#14 =( NAMED_UNIT ( * ) SI_UNIT ( $, .STERADIAN. ) SOLID_ANGLE_UNIT ( ) );
#15 = CARTESIAN_POINT ( 'NONE',  ( 9.375000000000000000, 2.449293598294706414E-16, -2.000000000000000000 ) ) ;
#16 = CIRCLE ( 'NONE', #371, 2.000000000000000000 ) ;
#17 = FACE_OUTER_BOUND ( 'NONE', #276, .T. ) ;
#18 = PRODUCT_CONTEXT ( 'NONE', #84, 'mechanical' ) ;
#19 = DIRECTION ( 'NONE',  ( -1.000000000000000000, -0.0000000000000000000, -0.0000000000000000000 ) ) ;
#20 = SURFACE_STYLE_FILL_AREA ( #353 ) ;
#21 = PRODUCT ( 'AC-8', 'AC-8', '', ( #18 ) ) ;
#22 = DIRECTION ( 'NONE',  ( 0.0000000000000000000, 0.0000000000000000000, -1.000000000000000000 ) ) ;
#23 = SURFACE_STYLE_USAGE ( .BOTH. , #229 ) ;
#24 = DIRECTION ( 'NONE',  ( 1.000000000000000000, 0.0000000000000000000, 0.0000000000000000000 ) ) ;
#25 = CARTESIAN_POINT ( 'NONE',  ( 0.0000000000000000000, 0.0000000000000000000, -1.515625000000000000 ) ) ;
#26 = CIRCLE ( 'NONE', #126, 4.000000000000000000 ) ;
#27 = ADVANCED_FACE ( 'NONE', ( #317 ), #54, .F. ) ;
#28 = DIRECTION ( 'NONE',  ( 0.0000000000000000000, 0.0000000000000000000, 1.000000000000000000 ) ) ;
#29 = ORIENTED_EDGE ( 'NONE', *, *, #368, .F. ) ;
#30 = CARTESIAN_POINT ( 'NONE',  ( 3.875000000000000444, 1.999999999999999778, 0.0000000000000000000 ) ) ;
#31 = EDGE_LOOP ( 'NONE', ( #329, #152 ) ) ;
#32 = STYLED_ITEM ( 'NONE', ( #177 ), #228 ) ;
#33 = VERTEX_POINT ( 'NONE', #15 ) ;
#34 = ADVANCED_FACE ( 'NONE', ( #197, #139 ), #320, .F. ) ;
#35 = ORIENTED_EDGE ( 'NONE', *, *, #299, .F. ) ;
#36 = EDGE_LOOP ( 'NONE', ( #313, #124 ) ) ;
#37 = ADVANCED_FACE ( 'NONE', ( #162, #51 ), #166, .F. ) ;
#38 = AXIS2_PLACEMENT_3D ( 'NONE', #148, #380, #114 ) ;
#39 = DIRECTION ( 'NONE',  ( -1.000000000000000000, -0.0000000000000000000, -0.0000000000000000000 ) ) ;
#40 = EDGE_LOOP ( 'NONE', ( #79, #360 ) ) ;
#41 = ORIENTED_EDGE ( 'NONE', *, *, #119, .F. ) ;
#42 = DIRECTION ( 'NONE',  ( -1.000000000000000000, -0.0000000000000000000, -0.0000000000000000000 ) ) ;
#43 = CARTESIAN_POINT ( 'NONE',  ( 0.0000000000000000000, 0.0000000000000000000, 0.0000000000000000000 ) ) ;
#44 = AXIS2_PLACEMENT_3D ( 'NONE', #57, #87, #286 ) ;
#45 = DIRECTION ( 'NONE',  ( -1.000000000000000000, 0.0000000000000000000, -0.0000000000000000000 ) ) ;
#46 = CARTESIAN_POINT ( 'NONE',  ( 9.375000000000000000, 0.0000000000000000000, 0.0000000000000000000 ) ) ;
#47 = CARTESIAN_POINT ( 'NONE',  ( 3.875000000000000444, 0.0000000000000000000, 4.000000000000000000 ) ) ;
#48 = PRESENTATION_STYLE_ASSIGNMENT (( #23 ) ) ;
#49 = FACE_OUTER_BOUND ( 'NONE', #8, .T. ) ;
#50 = EDGE_CURVE ( 'NONE', #33, #348, #247, .T. ) ;
#51 = FACE_OUTER_BOUND ( 'NONE', #31, .T. ) ;
#52 = CIRCLE ( 'NONE', #173, 4.125000000000000000 ) ;
#53 = STYLED_ITEM ( 'NONE', ( #48 ), #144 ) ;
#54 = CYLINDRICAL_SURFACE ( 'NONE', #302, 1.515625000000000000 ) ;
#55 = CYLINDRICAL_SURFACE ( 'NONE', #262, 4.124999999999999112 ) ;
#56 = APPLICATION_PROTOCOL_DEFINITION ( 'draft international standard', 'automotive_design', 1998, #84 ) ;
#57 = CARTESIAN_POINT ( 'NONE',  ( 0.3125000000000005551, 0.0000000000000000000, 0.0000000000000000000 ) ) ;
#58 = EDGE_CURVE ( 'NONE', #348, #33, #16, .T. ) ;
#59 = DIRECTION ( 'NONE',  ( -1.000000000000000000, -0.0000000000000000000, -0.0000000000000000000 ) ) ;
#60 = AXIS2_PLACEMENT_3D ( 'NONE', #323, #198, #259 ) ;
#61 = ORIENTED_EDGE ( 'NONE', *, *, #365, .T. ) ;
#62 = LINE ( 'NONE', #242, #140 ) ;
#63 = CARTESIAN_POINT ( 'NONE',  ( 3.875000000000000444, 0.0000000000000000000, 0.0000000000000000000 ) ) ;
#64 = VERTEX_POINT ( 'NONE', #135 ) ;
#65 = DIRECTION ( 'NONE',  ( 0.0000000000000000000, 0.0000000000000000000, -1.000000000000000000 ) ) ;
#66 = CIRCLE ( 'NONE', #60, 4.000000000000000000 ) ;
#67 =( GEOMETRIC_REPRESENTATION_CONTEXT ( 3 ) GLOBAL_UNCERTAINTY_ASSIGNED_CONTEXT ( ( #225 ) ) GLOBAL_UNIT_ASSIGNED_CONTEXT ( ( #91, #102, #14 ) ) REPRESENTATION_CONTEXT ( 'NONE', 'WORKASPACE' ) );
#68 = EDGE_LOOP ( 'NONE', ( #221, #278, #100, #41 ) ) ;
#69 = ORIENTED_EDGE ( 'NONE', *, *, #123, .T. ) ;
#70 = LINE ( 'NONE', #308, #281 ) ;
#71 = DIRECTION ( 'NONE',  ( -1.000000000000000000, -0.0000000000000000000, -0.0000000000000000000 ) ) ;
#72 = EDGE_LOOP ( 'NONE', ( #181, #189 ) ) ;
#73 = CARTESIAN_POINT ( 'NONE',  ( 0.0000000000000000000, 2.449293598294706414E-16, -2.000000000000000000 ) ) ;
#74 = EDGE_CURVE ( 'NONE', #194, #270, #78, .T. ) ;
#75 = PRODUCT_DEFINITION_CONTEXT ( 'detailed design', #157, 'design' ) ;
#76 = CARTESIAN_POINT ( 'NONE',  ( 9.375000000000000000, 0.0000000000000000000, 0.0000000000000000000 ) ) ;
#77 = DIRECTION ( 'NONE',  ( 0.0000000000000000000, 0.0000000000000000000, -1.000000000000000000 ) ) ;
#78 = CIRCLE ( 'NONE', #191, 4.124999999999999112 ) ;
#79 = ORIENTED_EDGE ( 'NONE', *, *, #200, .T. ) ;
#80 = DIRECTION ( 'NONE',  ( -1.000000000000000000, -0.0000000000000000000, -0.0000000000000000000 ) ) ;
#81 = DIRECTION ( 'NONE',  ( 0.0000000000000000000, 0.0000000000000000000, 1.000000000000000000 ) ) ;
#82 = ORIENTED_EDGE ( 'NONE', *, *, #145, .F. ) ;
#83 = CARTESIAN_POINT ( 'NONE',  ( 0.0000000000000000000, 0.0000000000000000000, 0.0000000000000000000 ) ) ;
#84 = APPLICATION_CONTEXT ( 'automotive_design' ) ;
#85 = ORIENTED_EDGE ( 'NONE', *, *, #190, .F. ) ;
#86 = AXIS2_PLACEMENT_3D ( 'NONE', #381, #125, #65 ) ;
#87 = DIRECTION ( 'NONE',  ( -1.000000000000000000, -0.0000000000000000000, -0.0000000000000000000 ) ) ;
#88 = PRESENTATION_LAYER_ASSIGNMENT (  '', '', ( #53 ) ) ;
#89 = SURFACE_STYLE_USAGE ( .BOTH. , #352 ) ;
#90 =( LENGTH_UNIT ( ) NAMED_UNIT ( * ) SI_UNIT ( $, .METRE. ) );
#91 =( CONVERSION_BASED_UNIT ( 'INCH', #264 ) LENGTH_UNIT ( ) NAMED_UNIT ( #283 ) );
#92 = CIRCLE ( 'NONE', #38, 4.124999999999999112 ) ;
#93 = EDGE_LOOP ( 'NONE', ( #341, #69, #218, #85 ) ) ;
#94 = DIRECTION ( 'NONE',  ( 0.0000000000000000000, 0.0000000000000000000, 1.000000000000000000 ) ) ;
#95 = CARTESIAN_POINT ( 'NONE',  ( 0.0000000000000000000, 1.856105304957707054E-16, 1.515625000000000000 ) ) ;
#96 = CLOSED_SHELL ( 'NONE', ( #282, #261, #379, #327, #275, #34, #133, #312, #37, #27, #206, #333 ) ) ;
#97 = EDGE_LOOP ( 'NONE', ( #366, #201 ) ) ;
#98 = CARTESIAN_POINT ( 'NONE',  ( 3.875000000000000444, 0.0000000000000000000, 0.0000000000000000000 ) ) ;
#99 = AXIS2_PLACEMENT_3D ( 'NONE', #227, #80, #343 ) ;
#100 = ORIENTED_EDGE ( 'NONE', *, *, #240, .F. ) ;
#101 = DIRECTION ( 'NONE',  ( -1.000000000000000000, -0.0000000000000000000, -0.0000000000000000000 ) ) ;
#102 =( NAMED_UNIT ( * ) PLANE_ANGLE_UNIT ( ) SI_UNIT ( $, .RADIAN. ) );
#103 = AXIS2_PLACEMENT_3D ( 'NONE', #43, #101, #154 ) ;
#104 = DIRECTION ( 'NONE',  ( -1.000000000000000000, -0.0000000000000000000, -0.0000000000000000000 ) ) ;
#105 = CIRCLE ( 'NONE', #250, 1.515625000000000000 ) ;
#106 = PRODUCT_DEFINITION_SHAPE ( 'NONE', 'NONE',  #375 ) ;
#107 = PRODUCT_RELATED_PRODUCT_CATEGORY ( 'part', '', ( #21 ) ) ;
#108 = CARTESIAN_POINT ( 'NONE',  ( 0.0000000000000000000, 1.856105304957707054E-16, 1.515625000000000000 ) ) ;
#109 = AXIS2_PLACEMENT_3D ( 'NONE', #318, #258, #81 ) ;
#110 = DIRECTION ( 'NONE',  ( 0.0000000000000000000, 0.0000000000000000000, -1.000000000000000000 ) ) ;
#111 =( LENGTH_UNIT ( ) NAMED_UNIT ( * ) SI_UNIT ( $, .METRE. ) );
#112 = VERTEX_POINT ( 'NONE', #347 ) ;
#113 = DIRECTION ( 'NONE',  ( -1.000000000000000000, -0.0000000000000000000, -0.0000000000000000000 ) ) ;
#114 = DIRECTION ( 'NONE',  ( 0.0000000000000000000, 0.0000000000000000000, 1.000000000000000000 ) ) ;
#115 =( NAMED_UNIT ( * ) PLANE_ANGLE_UNIT ( ) SI_UNIT ( $, .RADIAN. ) );
#116 = FACE_OUTER_BOUND ( 'NONE', #93, .T. ) ;
#117 = DIRECTION ( 'NONE',  ( 0.0000000000000000000, 0.0000000000000000000, -1.000000000000000000 ) ) ;
#118 = DIRECTION ( 'NONE',  ( 1.000000000000000000, -0.0000000000000000000, -0.0000000000000000000 ) ) ;
#119 = EDGE_CURVE ( 'NONE', #194, #12, #354, .T. ) ;
#120 =( GEOMETRIC_REPRESENTATION_CONTEXT ( 3 ) GLOBAL_UNCERTAINTY_ASSIGNED_CONTEXT ( ( #285 ) ) GLOBAL_UNIT_ASSIGNED_CONTEXT ( ( #196, #171, #319 ) ) REPRESENTATION_CONTEXT ( 'NONE', 'WORKASPACE' ) );
#121 = DIRECTION ( 'NONE',  ( -1.000000000000000000, -0.0000000000000000000, -0.0000000000000000000 ) ) ;
#122 = VERTEX_POINT ( 'NONE', #108 ) ;
#123 = EDGE_CURVE ( 'NONE', #64, #311, #287, .T. ) ;
#124 = ORIENTED_EDGE ( 'NONE', *, *, #273, .T. ) ;
#125 = DIRECTION ( 'NONE',  ( 1.000000000000000000, 0.0000000000000000000, 0.0000000000000000000 ) ) ;
#126 = AXIS2_PLACEMENT_3D ( 'NONE', #316, #292, #141 ) ;
#127 = ORIENTED_EDGE ( 'NONE', *, *, #161, .F. ) ;
#128 = ORIENTED_EDGE ( 'NONE', *, *, #7, .T. ) ;
#129 = CARTESIAN_POINT ( 'NONE',  ( 0.3125000000000005551, 5.051668046482830778E-16, -4.124999999999999112 ) ) ;
#130 = VERTEX_POINT ( 'NONE', #47 ) ;
#131 = CIRCLE ( 'NONE', #109, 4.125000000000000000 ) ;
#132 = DIMENSIONAL_EXPONENTS ( 1.000000000000000000, 0.0000000000000000000, 0.0000000000000000000, 0.0000000000000000000, 0.0000000000000000000, 0.0000000000000000000, 0.0000000000000000000 ) ;
#133 = ADVANCED_FACE ( 'NONE', ( #49 ), #203, .T. ) ;
#134 = ORIENTED_EDGE ( 'NONE', *, *, #119, .T. ) ;
#135 = CARTESIAN_POINT ( 'NONE',  ( 3.875000000000000444, 4.898587196589412829E-16, -4.000000000000000000 ) ) ;
#136 = LENGTH_MEASURE_WITH_UNIT ( LENGTH_MEASURE( 0.02539999999999999897 ), #111 );
#137 = VECTOR ( 'NONE', #42, 39.37007874015748143 ) ;
#138 = DIMENSIONAL_EXPONENTS ( 1.000000000000000000, 0.0000000000000000000, 0.0000000000000000000, 0.0000000000000000000, 0.0000000000000000000, 0.0000000000000000000, 0.0000000000000000000 ) ;
#139 = FACE_OUTER_BOUND ( 'NONE', #6, .T. ) ;
#140 = VECTOR ( 'NONE', #118, 39.37007874015748143 ) ;
#141 = DIRECTION ( 'NONE',  ( 0.0000000000000000000, 0.0000000000000000000, 1.000000000000000000 ) ) ;
#142 = DIRECTION ( 'NONE',  ( 1.000000000000000000, 0.0000000000000000000, 0.0000000000000000000 ) ) ;
#143 = CARTESIAN_POINT ( 'NONE',  ( 0.3125000000000005551, 0.0000000000000000000, 4.124999999999999112 ) ) ;
#144 = ADVANCED_BREP_SHAPE_REPRESENTATION ( 'AC-8', ( #228, #1 ), #67 ) ;
#145 = EDGE_CURVE ( 'NONE', #158, #305, #289, .T. ) ;
#146 = LENGTH_MEASURE_WITH_UNIT ( LENGTH_MEASURE( 0.02539999999999999897 ), #304 );
#147 = CYLINDRICAL_SURFACE ( 'NONE', #254, 2.000000000000000000 ) ;
#148 = CARTESIAN_POINT ( 'NONE',  ( 0.3125000000000005551, 0.0000000000000000000, 0.0000000000000000000 ) ) ;
#149 = DIRECTION ( 'NONE',  ( -0.0000000000000000000, 0.0000000000000000000, 1.000000000000000000 ) ) ;
#150 = VECTOR ( 'NONE', #349, 39.37007874015748143 ) ;
#151 = ORIENTED_EDGE ( 'NONE', *, *, #368, .T. ) ;
#152 = ORIENTED_EDGE ( 'NONE', *, *, #161, .T. ) ;
#153 = ORIENTED_EDGE ( 'NONE', *, *, #58, .T. ) ;
#154 = DIRECTION ( 'NONE',  ( 0.0000000000000000000, 0.0000000000000000000, 1.000000000000000000 ) ) ;
#155 = CARTESIAN_POINT ( 'NONE',  ( 9.375000000000000000, 1.856105304957707054E-16, 1.515625000000000000 ) ) ;
#156 = ORIENTED_EDGE ( 'NONE', *, *, #351, .T. ) ;
#157 = APPLICATION_CONTEXT ( 'automotive_design' ) ;
#158 = VERTEX_POINT ( 'NONE', #232 ) ;
#159 = DIRECTION ( 'NONE',  ( 1.000000000000000000, -0.0000000000000000000, -0.0000000000000000000 ) ) ;
#160 = AXIS2_PLACEMENT_3D ( 'NONE', #98, #220, #367 ) ;
#161 = EDGE_CURVE ( 'NONE', #112, #12, #131, .T. ) ;
#162 = FACE_BOUND ( 'NONE', #97, .T. ) ;
#163 = DIRECTION ( 'NONE',  ( 0.0000000000000000000, 0.0000000000000000000, 1.000000000000000000 ) ) ;
#164 = FILL_AREA_STYLE ('',( #257 ) ) ;
#165 = VECTOR ( 'NONE', #113, 39.37007874015748143 ) ;
#166 = PLANE ( 'NONE',  #268 ) ;
#167 = DIRECTION ( 'NONE',  ( 0.0000000000000000000, 0.0000000000000000000, 1.000000000000000000 ) ) ;
#168 = CARTESIAN_POINT ( 'NONE',  ( 0.0000000000000000000, 0.0000000000000000000, 0.0000000000000000000 ) ) ;
#169 = EDGE_CURVE ( 'NONE', #311, #244, #295, .T. ) ;
#170 = CARTESIAN_POINT ( 'NONE',  ( 0.0000000000000000000, 0.0000000000000000000, 0.0000000000000000000 ) ) ;
#171 =( NAMED_UNIT ( * ) PLANE_ANGLE_UNIT ( ) SI_UNIT ( $, .RADIAN. ) );
#172 = EDGE_LOOP ( 'NONE', ( #296, #61, #336, #364 ) ) ;
#173 = AXIS2_PLACEMENT_3D ( 'NONE', #376, #4, #211 ) ;
#174 = DIRECTION ( 'NONE',  ( -1.000000000000000000, 0.0000000000000000000, -0.0000000000000000000 ) ) ;
#175 = EDGE_CURVE ( 'NONE', #346, #122, #359, .T. ) ;
#176 = CARTESIAN_POINT ( 'NONE',  ( 3.875000000000000444, 2.449293598294705921E-16, -1.999999999999999778 ) ) ;
#177 = PRESENTATION_STYLE_ASSIGNMENT (( #89 ) ) ;
#178 = PLANE ( 'NONE',  #185 ) ;
#179 = MECHANICAL_DESIGN_GEOMETRIC_PRESENTATION_REPRESENTATION (  '', ( #32 ), #277 ) ;
#180 = COLOUR_RGB ( '',0.7921568627450980005, 0.8196078431372548767, 0.9333333333333333481 ) ;
#181 = ORIENTED_EDGE ( 'NONE', *, *, #74, .F. ) ;
#182 = ORIENTED_EDGE ( 'NONE', *, *, #50, .T. ) ;
#183 = FACE_OUTER_BOUND ( 'NONE', #374, .T. ) ;
#184 = ORIENTED_EDGE ( 'NONE', *, *, #344, .T. ) ;
#185 = AXIS2_PLACEMENT_3D ( 'NONE', #324, #174, #149 ) ;
#186 = ORIENTED_EDGE ( 'NONE', *, *, #306, .T. ) ;
#187 = EDGE_LOOP ( 'NONE', ( #362, #29 ) ) ;
#188 = LINE ( 'NONE', #340, #137 ) ;
#189 = ORIENTED_EDGE ( 'NONE', *, *, #344, .F. ) ;
#190 = EDGE_CURVE ( 'NONE', #130, #244, #202, .T. ) ;
#191 = AXIS2_PLACEMENT_3D ( 'NONE', #252, #104, #231 ) ;
#192 = EDGE_LOOP ( 'NONE', ( #82, #266 ) ) ;
#193 = DIRECTION ( 'NONE',  ( -1.000000000000000000, -0.0000000000000000000, -0.0000000000000000000 ) ) ;
#194 = VERTEX_POINT ( 'NONE', #143 ) ;
#195 = DIRECTION ( 'NONE',  ( 0.0000000000000000000, 0.0000000000000000000, 1.000000000000000000 ) ) ;
#196 =( CONVERSION_BASED_UNIT ( 'INCH', #136 ) LENGTH_UNIT ( ) NAMED_UNIT ( #132 ) );
#197 = FACE_BOUND ( 'NONE', #192, .T. ) ;
#198 = DIRECTION ( 'NONE',  ( -1.000000000000000000, -0.0000000000000000000, -0.0000000000000000000 ) ) ;
#199 = AXIS2_PLACEMENT_3D ( 'NONE', #76, #45, #255 ) ;
#200 = EDGE_CURVE ( 'NONE', #244, #311, #66, .T. ) ;
#201 = ORIENTED_EDGE ( 'NONE', *, *, #246, .T. ) ;
#202 = LINE ( 'NONE', #377, #165 ) ;
#203 = CYLINDRICAL_SURFACE ( 'NONE', #207, 2.000000000000000000 ) ;
#204 = APPLICATION_PROTOCOL_DEFINITION ( 'draft international standard', 'automotive_design', 1998, #157 ) ;
#205 = CARTESIAN_POINT ( 'NONE',  ( 0.0000000000000000000, 0.0000000000000000000, 0.0000000000000000000 ) ) ;
#206 = ADVANCED_FACE ( 'NONE', ( #17 ), #55, .T. ) ;
#207 = AXIS2_PLACEMENT_3D ( 'NONE', #236, #293, #167 ) ;
#208 = AXIS2_PLACEMENT_3D ( 'NONE', #63, #382, #245 ) ;
#209 = FACE_OUTER_BOUND ( 'NONE', #187, .T. ) ;
#210 = EDGE_LOOP ( 'NONE', ( #153, #128, #279, #307 ) ) ;
#211 = DIRECTION ( 'NONE',  ( 0.0000000000000000000, 0.0000000000000000000, 1.000000000000000000 ) ) ;
#212 = CARTESIAN_POINT ( 'NONE',  ( 3.875000000000000444, 0.0000000000000000000, 0.0000000000000000000 ) ) ;
#213 =( NAMED_UNIT ( * ) SI_UNIT ( $, .STERADIAN. ) SOLID_ANGLE_UNIT ( ) );
#214 = DIRECTION ( 'NONE',  ( 1.000000000000000000, -0.0000000000000000000, -0.0000000000000000000 ) ) ;
#215 = EDGE_CURVE ( 'NONE', #130, #64, #26, .T. ) ;
#216 = ORIENTED_EDGE ( 'NONE', *, *, #273, .F. ) ;
#217 =( CONVERSION_BASED_UNIT ( 'INCH', #146 ) LENGTH_UNIT ( ) NAMED_UNIT ( #138 ) );
#218 = ORIENTED_EDGE ( 'NONE', *, *, #200, .F. ) ;
#219 = CYLINDRICAL_SURFACE ( 'NONE', #358, 1.515625000000000000 ) ;
#220 = DIRECTION ( 'NONE',  ( -1.000000000000000000, -0.0000000000000000000, -0.0000000000000000000 ) ) ;
#221 = ORIENTED_EDGE ( 'NONE', *, *, #74, .T. ) ;
#222 = VECTOR ( 'NONE', #315, 39.37007874015748143 ) ;
#223 = ORIENTED_EDGE ( 'NONE', *, *, #365, .F. ) ;
#224 = FACE_OUTER_BOUND ( 'NONE', #172, .T. ) ;
#225 = UNCERTAINTY_MEASURE_WITH_UNIT (LENGTH_MEASURE( 1.000000000000000082E-05 ), #91, 'distance_accuracy_value', 'NONE');
#226 = ORIENTED_EDGE ( 'NONE', *, *, #169, .F. ) ;
#227 = CARTESIAN_POINT ( 'NONE',  ( 9.375000000000000000, 0.0000000000000000000, 0.0000000000000000000 ) ) ;
#228 = MANIFOLD_SOLID_BREP ( 'Revolve2', #96 ) ;
#229 = SURFACE_SIDE_STYLE ('',( #20 ) ) ;
#230 = VECTOR ( 'NONE', #19, 39.37007874015748143 ) ;
#231 = DIRECTION ( 'NONE',  ( 0.0000000000000000000, 0.0000000000000000000, 1.000000000000000000 ) ) ;
#232 = CARTESIAN_POINT ( 'NONE',  ( 9.375000000000000000, 0.0000000000000000000, -1.515625000000000000 ) ) ;
#233 = SHAPE_DEFINITION_REPRESENTATION ( #106, #144 ) ;
#234 = LINE ( 'NONE', #73, #222 ) ;
#235 = DIRECTION ( 'NONE',  ( 0.0000000000000000000, 0.0000000000000000000, -1.000000000000000000 ) ) ;
#236 = CARTESIAN_POINT ( 'NONE',  ( 0.0000000000000000000, 0.0000000000000000000, 0.0000000000000000000 ) ) ;
#237 = AXIS2_PLACEMENT_3D ( 'NONE', #335, #71, #310 ) ;
#238 = VECTOR ( 'NONE', #214, 39.37007874015748143 ) ;
#239 = SURFACE_STYLE_FILL_AREA ( #164 ) ;
#240 = EDGE_CURVE ( 'NONE', #12, #112, #52, .T. ) ;
#241 = DIRECTION ( 'NONE',  ( 0.0000000000000000000, 0.0000000000000000000, 1.000000000000000000 ) ) ;
#242 = CARTESIAN_POINT ( 'NONE',  ( 0.0000000000000000000, 0.0000000000000000000, -1.515625000000000000 ) ) ;
#243 = MECHANICAL_DESIGN_GEOMETRIC_PRESENTATION_REPRESENTATION (  '', ( #53 ), #120 ) ;
#244 = VERTEX_POINT ( 'NONE', #330 ) ;
#245 = DIRECTION ( 'NONE',  ( 0.0000000000000000000, 0.0000000000000000000, 1.000000000000000000 ) ) ;
#246 = EDGE_CURVE ( 'NONE', #122, #346, #5, .T. ) ;
#247 = CIRCLE ( 'NONE', #99, 2.000000000000000000 ) ;
#248 = ORIENTED_EDGE ( 'NONE', *, *, #190, .T. ) ;
#249 = CYLINDRICAL_SURFACE ( 'NONE', #237, 4.124999999999999112 ) ;
#250 = AXIS2_PLACEMENT_3D ( 'NONE', #300, #271, #117 ) ;
#251 = ORIENTED_EDGE ( 'NONE', *, *, #145, .T. ) ;
#252 = CARTESIAN_POINT ( 'NONE',  ( 0.3125000000000005551, 0.0000000000000000000, 0.0000000000000000000 ) ) ;
#253 = CARTESIAN_POINT ( 'NONE',  ( 9.375000000000000000, 0.0000000000000000000, 0.0000000000000000000 ) ) ;
#254 = AXIS2_PLACEMENT_3D ( 'NONE', #357, #121, #241 ) ;
#255 = DIRECTION ( 'NONE',  ( -0.0000000000000000000, 0.0000000000000000000, 1.000000000000000000 ) ) ;
#256 = EDGE_CURVE ( 'NONE', #305, #158, #105, .T. ) ;
#257 = FILL_AREA_STYLE_COLOUR ( '', #309 ) ;
#258 = DIRECTION ( 'NONE',  ( -1.000000000000000000, -0.0000000000000000000, -0.0000000000000000000 ) ) ;
#259 = DIRECTION ( 'NONE',  ( 0.0000000000000000000, 0.0000000000000000000, 1.000000000000000000 ) ) ;
#260 = FILL_AREA_STYLE_COLOUR ( '', #180 ) ;
#261 = ADVANCED_FACE ( 'NONE', ( #224 ), #219, .F. ) ;
#262 = AXIS2_PLACEMENT_3D ( 'NONE', #170, #193, #195 ) ;
#263 = CARTESIAN_POINT ( 'NONE',  ( 0.0000000000000000000, 4.898587196589412829E-16, -4.000000000000000000 ) ) ;
#264 = LENGTH_MEASURE_WITH_UNIT ( LENGTH_MEASURE( 0.02539999999999999897 ), #90 );
#265 = PLANE ( 'NONE',  #331 ) ;
#266 = ORIENTED_EDGE ( 'NONE', *, *, #256, .F. ) ;
#267 = LINE ( 'NONE', #95, #238 ) ;
#268 = AXIS2_PLACEMENT_3D ( 'NONE', #290, #369, #77 ) ;
#269 = CIRCLE ( 'NONE', #373, 1.999999999999999778 ) ;
#270 = VERTEX_POINT ( 'NONE', #129 ) ;
#271 = DIRECTION ( 'NONE',  ( 1.000000000000000000, 0.0000000000000000000, 0.0000000000000000000 ) ) ;
#272 = CARTESIAN_POINT ( 'NONE',  ( 9.375000000000000000, 0.0000000000000000000, 2.000000000000000000 ) ) ;
#273 = EDGE_CURVE ( 'NONE', #332, #274, #10, .T. ) ;
#274 = VERTEX_POINT ( 'NONE', #361 ) ;
#275 = ADVANCED_FACE ( 'NONE', ( #183 ), #342, .T. ) ;
#276 = EDGE_LOOP ( 'NONE', ( #35, #184, #134, #127 ) ) ;
#277 =( GEOMETRIC_REPRESENTATION_CONTEXT ( 3 ) GLOBAL_UNCERTAINTY_ASSIGNED_CONTEXT ( ( #372 ) ) GLOBAL_UNIT_ASSIGNED_CONTEXT ( ( #217, #115, #213 ) ) REPRESENTATION_CONTEXT ( 'NONE', 'WORKASPACE' ) );
#278 = ORIENTED_EDGE ( 'NONE', *, *, #299, .T. ) ;
#279 = ORIENTED_EDGE ( 'NONE', *, *, #338, .F. ) ;
#280 = DIRECTION ( 'NONE',  ( 0.0000000000000000000, 0.0000000000000000000, -1.000000000000000000 ) ) ;
#281 = VECTOR ( 'NONE', #39, 39.37007874015748143 ) ;
#282 = ADVANCED_FACE ( 'NONE', ( #337 ), #249, .T. ) ;
#283 = DIMENSIONAL_EXPONENTS ( 1.000000000000000000, 0.0000000000000000000, 0.0000000000000000000, 0.0000000000000000000, 0.0000000000000000000, 0.0000000000000000000, 0.0000000000000000000 ) ;
#284 = CARTESIAN_POINT ( 'NONE',  ( 0.0000000000000000000, 0.0000000000000000000, 4.125000000000000000 ) ) ;
#285 = UNCERTAINTY_MEASURE_WITH_UNIT (LENGTH_MEASURE( 1.000000000000000082E-05 ), #196, 'distance_accuracy_value', 'NONE');
#286 = DIRECTION ( 'NONE',  ( 0.0000000000000000000, 0.0000000000000000000, 1.000000000000000000 ) ) ;
#287 = LINE ( 'NONE', #263, #230 ) ;
#288 = DIRECTION ( 'NONE',  ( 1.000000000000000000, 0.0000000000000000000, 0.0000000000000000000 ) ) ;
#289 = CIRCLE ( 'NONE', #314, 1.515625000000000000 ) ;
#290 = CARTESIAN_POINT ( 'NONE',  ( 0.0000000000000000000, 3.999999999999999556, 0.0000000000000000000 ) ) ;
#291 = CARTESIAN_POINT ( 'NONE',  ( 0.0000000000000000000, 0.0000000000000000000, 4.124999999999999112 ) ) ;
#292 = DIRECTION ( 'NONE',  ( -1.000000000000000000, -0.0000000000000000000, -0.0000000000000000000 ) ) ;
#293 = DIRECTION ( 'NONE',  ( -1.000000000000000000, -0.0000000000000000000, -0.0000000000000000000 ) ) ;
#294 = DIRECTION ( 'NONE',  ( -1.000000000000000000, 0.0000000000000000000, -0.0000000000000000000 ) ) ;
#295 = CIRCLE ( 'NONE', #44, 4.000000000000000000 ) ;
#296 = ORIENTED_EDGE ( 'NONE', *, *, #246, .F. ) ;
#297 = CARTESIAN_POINT ( 'NONE',  ( 0.3125000000000005551, 4.898587196589412829E-16, -4.000000000000000000 ) ) ;
#298 = FACE_BOUND ( 'NONE', #36, .T. ) ;
#299 = EDGE_CURVE ( 'NONE', #270, #112, #70, .T. ) ;
#300 = CARTESIAN_POINT ( 'NONE',  ( 9.375000000000000000, 0.0000000000000000000, 0.0000000000000000000 ) ) ;
#301 = FACE_BOUND ( 'NONE', #40, .T. ) ;
#302 = AXIS2_PLACEMENT_3D ( 'NONE', #168, #9, #235 ) ;
#303 = AXIS2_PLACEMENT_3D ( 'NONE', #205, #326, #94 ) ;
#304 =( LENGTH_UNIT ( ) NAMED_UNIT ( * ) SI_UNIT ( $, .METRE. ) );
#305 = VERTEX_POINT ( 'NONE', #155 ) ;
#306 = EDGE_CURVE ( 'NONE', #348, #274, #188, .T. ) ;
#307 = ORIENTED_EDGE ( 'NONE', *, *, #306, .F. ) ;
#308 = CARTESIAN_POINT ( 'NONE',  ( 0.0000000000000000000, 5.051668046482830778E-16, -4.124999999999999112 ) ) ;
#309 = COLOUR_RGB ( '',0.7921568627450980005, 0.8196078431372548767, 0.9333333333333333481 ) ;
#310 = DIRECTION ( 'NONE',  ( 0.0000000000000000000, 0.0000000000000000000, 1.000000000000000000 ) ) ;
#311 = VERTEX_POINT ( 'NONE', #297 ) ;
#312 = ADVANCED_FACE ( 'NONE', ( #209, #298 ), #265, .F. ) ;
#313 = ORIENTED_EDGE ( 'NONE', *, *, #338, .T. ) ;
#314 = AXIS2_PLACEMENT_3D ( 'NONE', #253, #24, #110 ) ;
#315 = DIRECTION ( 'NONE',  ( -1.000000000000000000, -0.0000000000000000000, -0.0000000000000000000 ) ) ;
#316 = CARTESIAN_POINT ( 'NONE',  ( 3.875000000000000444, 0.0000000000000000000, 0.0000000000000000000 ) ) ;
#317 = FACE_OUTER_BOUND ( 'NONE', #334, .T. ) ;
#318 = CARTESIAN_POINT ( 'NONE',  ( 0.0000000000000000000, 0.0000000000000000000, 0.0000000000000000000 ) ) ;
#319 =( NAMED_UNIT ( * ) SI_UNIT ( $, .STERADIAN. ) SOLID_ANGLE_UNIT ( ) );
#320 = PLANE ( 'NONE',  #199 ) ;
#321 = CARTESIAN_POINT ( 'NONE',  ( 0.0000000000000000000, 0.0000000000000000000, 0.0000000000000000000 ) ) ;
#322 = ORIENTED_EDGE ( 'NONE', *, *, #123, .F. ) ;
#323 = CARTESIAN_POINT ( 'NONE',  ( 0.3125000000000005551, 0.0000000000000000000, 0.0000000000000000000 ) ) ;
#324 = CARTESIAN_POINT ( 'NONE',  ( 0.3125000000000005551, 4.000000000000000000, 0.0000000000000000000 ) ) ;
#325 = CIRCLE ( 'NONE', #208, 4.000000000000000000 ) ;
#326 = DIRECTION ( 'NONE',  ( -1.000000000000000000, -0.0000000000000000000, -0.0000000000000000000 ) ) ;
#327 = ADVANCED_FACE ( 'NONE', ( #116 ), #355, .T. ) ;
#328 = FACE_OUTER_BOUND ( 'NONE', #72, .T. ) ;
#329 = ORIENTED_EDGE ( 'NONE', *, *, #240, .T. ) ;
#330 = CARTESIAN_POINT ( 'NONE',  ( 0.3125000000000005551, 0.0000000000000000000, 4.000000000000000000 ) ) ;
#331 = AXIS2_PLACEMENT_3D ( 'NONE', #30, #294, #378 ) ;
#332 = VERTEX_POINT ( 'NONE', #176 ) ;
#333 = ADVANCED_FACE ( 'NONE', ( #328, #301 ), #178, .F. ) ;
#334 = EDGE_LOOP ( 'NONE', ( #223, #3, #156, #251 ) ) ;
#335 = CARTESIAN_POINT ( 'NONE',  ( 0.0000000000000000000, 0.0000000000000000000, 0.0000000000000000000 ) ) ;
#336 = ORIENTED_EDGE ( 'NONE', *, *, #256, .T. ) ;
#337 = FACE_OUTER_BOUND ( 'NONE', #68, .T. ) ;
#338 = EDGE_CURVE ( 'NONE', #274, #332, #269, .T. ) ;
#339 = ORIENTED_EDGE ( 'NONE', *, *, #50, .F. ) ;
#340 = CARTESIAN_POINT ( 'NONE',  ( 0.0000000000000000000, 0.0000000000000000000, 2.000000000000000000 ) ) ;
#341 = ORIENTED_EDGE ( 'NONE', *, *, #215, .T. ) ;
#342 = CYLINDRICAL_SURFACE ( 'NONE', #103, 4.000000000000000000 ) ;
#343 = DIRECTION ( 'NONE',  ( 0.0000000000000000000, 0.0000000000000000000, 1.000000000000000000 ) ) ;
#344 = EDGE_CURVE ( 'NONE', #270, #194, #92, .T. ) ;
#345 = DIRECTION ( 'NONE',  ( 0.0000000000000000000, 0.0000000000000000000, 1.000000000000000000 ) ) ;
#346 = VERTEX_POINT ( 'NONE', #25 ) ;
#347 = CARTESIAN_POINT ( 'NONE',  ( 0.0000000000000000000, 5.051668046482831764E-16, -4.125000000000000000 ) ) ;
#348 = VERTEX_POINT ( 'NONE', #272 ) ;
#349 = DIRECTION ( 'NONE',  ( -1.000000000000000000, -0.0000000000000000000, -0.0000000000000000000 ) ) ;
#350 = AXIS2_PLACEMENT_3D ( 'NONE', #321, #142, #22 ) ;
#351 = EDGE_CURVE ( 'NONE', #346, #158, #62, .T. ) ;
#352 = SURFACE_SIDE_STYLE ('',( #239 ) ) ;
#353 = FILL_AREA_STYLE ('',( #260 ) ) ;
#354 = LINE ( 'NONE', #291, #150 ) ;
#355 = CYLINDRICAL_SURFACE ( 'NONE', #303, 4.000000000000000000 ) ;
#356 = ORIENTED_EDGE ( 'NONE', *, *, #7, .F. ) ;
#357 = CARTESIAN_POINT ( 'NONE',  ( 0.0000000000000000000, 0.0000000000000000000, 0.0000000000000000000 ) ) ;
#358 = AXIS2_PLACEMENT_3D ( 'NONE', #363, #159, #280 ) ;
#359 = CIRCLE ( 'NONE', #350, 1.515625000000000000 ) ;
#360 = ORIENTED_EDGE ( 'NONE', *, *, #169, .T. ) ;
#361 = CARTESIAN_POINT ( 'NONE',  ( 3.875000000000000444, 0.0000000000000000000, 1.999999999999999778 ) ) ;
#362 = ORIENTED_EDGE ( 'NONE', *, *, #215, .F. ) ;
#363 = CARTESIAN_POINT ( 'NONE',  ( 0.0000000000000000000, 0.0000000000000000000, 0.0000000000000000000 ) ) ;
#364 = ORIENTED_EDGE ( 'NONE', *, *, #351, .F. ) ;
#365 = EDGE_CURVE ( 'NONE', #122, #305, #267, .T. ) ;
#366 = ORIENTED_EDGE ( 'NONE', *, *, #175, .T. ) ;
#367 = DIRECTION ( 'NONE',  ( 0.0000000000000000000, 0.0000000000000000000, 1.000000000000000000 ) ) ;
#368 = EDGE_CURVE ( 'NONE', #64, #130, #325, .T. ) ;
#369 = DIRECTION ( 'NONE',  ( 1.000000000000000000, 0.0000000000000000000, 0.0000000000000000000 ) ) ;
#370 = DIRECTION ( 'NONE',  ( -1.000000000000000000, -0.0000000000000000000, -0.0000000000000000000 ) ) ;
#371 = AXIS2_PLACEMENT_3D ( 'NONE', #46, #370, #163 ) ;
#372 = UNCERTAINTY_MEASURE_WITH_UNIT (LENGTH_MEASURE( 1.000000000000000082E-05 ), #217, 'distance_accuracy_value', 'NONE');
#373 = AXIS2_PLACEMENT_3D ( 'NONE', #212, #59, #28 ) ;
#374 = EDGE_LOOP ( 'NONE', ( #322, #151, #248, #226 ) ) ;
#375 = PRODUCT_DEFINITION ( 'UNKNOWN', '', #11, #75 ) ;
#376 = CARTESIAN_POINT ( 'NONE',  ( 0.0000000000000000000, 0.0000000000000000000, 0.0000000000000000000 ) ) ;
#377 = CARTESIAN_POINT ( 'NONE',  ( 0.0000000000000000000, 0.0000000000000000000, 4.000000000000000000 ) ) ;
#378 = DIRECTION ( 'NONE',  ( -0.0000000000000000000, 0.0000000000000000000, 1.000000000000000000 ) ) ;
#379 = ADVANCED_FACE ( 'NONE', ( #2 ), #147, .T. ) ;
#380 = DIRECTION ( 'NONE',  ( -1.000000000000000000, -0.0000000000000000000, -0.0000000000000000000 ) ) ;
#381 = CARTESIAN_POINT ( 'NONE',  ( 0.0000000000000000000, 0.0000000000000000000, 0.0000000000000000000 ) ) ;
#382 = DIRECTION ( 'NONE',  ( -1.000000000000000000, -0.0000000000000000000, -0.0000000000000000000 ) ) ;
#383 = PRESENTATION_LAYER_ASSIGNMENT (  '', '', ( #32 ) ) ;
ENDSEC;
END-ISO-10303-21;
