ISO-10303-21;
HEADER;
FILE_DESCRIPTION (( 'STEP AP214' ),
    '1' );
FILE_NAME ('AC-6.STEP',
    '2020-10-26T23:41:58',
    ( '' ),
    ( '' ),
    'SwSTEP 2.0',
    'SolidWorks 2019',
    '' );
FILE_SCHEMA (( 'AUTOMOTIVE_DESIGN' ));
ENDSEC;

DATA;
#1 =( GEOMETRIC_REPRESENTATION_CONTEXT ( 3 ) GLOBAL_UNCERTAINTY_ASSIGNED_CONTEXT ( ( #277 ) ) GLOBAL_UNIT_ASSIGNED_CONTEXT ( ( #41, #293, #91 ) ) REPRESENTATION_CONTEXT ( 'NONE', 'WORKASPACE' ) );
#2 = CARTESIAN_POINT ( 'NONE',  ( 0.0000000000000000000, 0.0000000000000000000, 0.0000000000000000000 ) ) ;
#3 = DIRECTION ( 'NONE',  ( 1.000000000000000000, 0.0000000000000000000, 0.0000000000000000000 ) ) ;
#4 = CARTESIAN_POINT ( 'NONE',  ( 0.3125000000000005551, 3.673940397442058882E-16, -2.999999999999999556 ) ) ;
#5 = ADVANCED_FACE ( 'NONE', ( #300 ), #186, .T. ) ;
#6 = VERTEX_POINT ( 'NONE', #189 ) ;
#7 = DIRECTION ( 'NONE',  ( 0.0000000000000000000, 0.0000000000000000000, 1.000000000000000000 ) ) ;
#8 = DIRECTION ( 'NONE',  ( -1.000000000000000000, -0.0000000000000000000, -0.0000000000000000000 ) ) ;
#9 = DIRECTION ( 'NONE',  ( 0.0000000000000000000, 0.0000000000000000000, 1.000000000000000000 ) ) ;
#10 = PRODUCT ( 'AC-6', 'AC-6', '', ( #14 ) ) ;
#11 = CARTESIAN_POINT ( 'NONE',  ( 0.0000000000000000000, 3.827021247335478310E-16, -3.124999999999999556 ) ) ;
#12 = CIRCLE ( 'NONE', #225, 2.000000000000000000 ) ;
#13 = FACE_BOUND ( 'NONE', #324, .T. ) ;
#14 = PRODUCT_CONTEXT ( 'NONE', #21, 'mechanical' ) ;
#15 = PLANE ( 'NONE',  #307 ) ;
#16 = VECTOR ( 'NONE', #198, 39.37007874015748143 ) ;
#17 = ORIENTED_EDGE ( 'NONE', *, *, #372, .T. ) ;
#18 =( GEOMETRIC_REPRESENTATION_CONTEXT ( 3 ) GLOBAL_UNCERTAINTY_ASSIGNED_CONTEXT ( ( #50 ) ) GLOBAL_UNIT_ASSIGNED_CONTEXT ( ( #348, #284, #23 ) ) REPRESENTATION_CONTEXT ( 'NONE', 'WORKASPACE' ) );
#19 =( LENGTH_UNIT ( ) NAMED_UNIT ( * ) SI_UNIT ( $, .METRE. ) );
#20 = CARTESIAN_POINT ( 'NONE',  ( 0.0000000000000000000, 1.856105304957707054E-16, 1.515625000000000000 ) ) ;
#21 = APPLICATION_CONTEXT ( 'automotive_design' ) ;
#22 = ORIENTED_EDGE ( 'NONE', *, *, #157, .T. ) ;
#23 =( NAMED_UNIT ( * ) SI_UNIT ( $, .STERADIAN. ) SOLID_ANGLE_UNIT ( ) );
#24 = DIRECTION ( 'NONE',  ( -1.000000000000000000, 0.0000000000000000000, -0.0000000000000000000 ) ) ;
#25 = CARTESIAN_POINT ( 'NONE',  ( 0.0000000000000000000, 1.856105304957707054E-16, 1.515625000000000000 ) ) ;
#26 = ORIENTED_EDGE ( 'NONE', *, *, #224, .F. ) ;
#27 = DIRECTION ( 'NONE',  ( 1.000000000000000000, 0.0000000000000000000, 0.0000000000000000000 ) ) ;
#28 = ORIENTED_EDGE ( 'NONE', *, *, #258, .F. ) ;
#29 = ORIENTED_EDGE ( 'NONE', *, *, #162, .F. ) ;
#30 = VECTOR ( 'NONE', #39, 39.37007874015748143 ) ;
#31 = CARTESIAN_POINT ( 'NONE',  ( 0.0000000000000000000, 0.0000000000000000000, 3.124999999999999112 ) ) ;
#32 = CARTESIAN_POINT ( 'NONE',  ( 0.0000000000000000000, 0.0000000000000000000, 0.0000000000000000000 ) ) ;
#33 = DIMENSIONAL_EXPONENTS ( 1.000000000000000000, 0.0000000000000000000, 0.0000000000000000000, 0.0000000000000000000, 0.0000000000000000000, 0.0000000000000000000, 0.0000000000000000000 ) ;
#34 = CARTESIAN_POINT ( 'NONE',  ( 0.0000000000000000000, 2.449293598294706414E-16, -2.000000000000000000 ) ) ;
#35 = DIRECTION ( 'NONE',  ( 0.0000000000000000000, 0.0000000000000000000, -1.000000000000000000 ) ) ;
#36 = FACE_BOUND ( 'NONE', #141, .T. ) ;
#37 = AXIS2_PLACEMENT_3D ( 'NONE', #219, #343, #274 ) ;
#38 = PRESENTATION_LAYER_ASSIGNMENT (  '', '', ( #172 ) ) ;
#39 = DIRECTION ( 'NONE',  ( -1.000000000000000000, -0.0000000000000000000, -0.0000000000000000000 ) ) ;
#40 = ADVANCED_FACE ( 'NONE', ( #158, #43 ), #221, .F. ) ;
#41 =( CONVERSION_BASED_UNIT ( 'INCH', #183 ) LENGTH_UNIT ( ) NAMED_UNIT ( #120 ) );
#42 = CIRCLE ( 'NONE', #233, 1.515625000000000000 ) ;
#43 = FACE_OUTER_BOUND ( 'NONE', #322, .T. ) ;
#44 = FACE_OUTER_BOUND ( 'NONE', #145, .T. ) ;
#45 = CARTESIAN_POINT ( 'NONE',  ( 0.0000000000000000000, 0.0000000000000000000, 0.0000000000000000000 ) ) ;
#46 = CARTESIAN_POINT ( 'NONE',  ( 0.0000000000000000000, 0.0000000000000000000, 0.0000000000000000000 ) ) ;
#47 = DIRECTION ( 'NONE',  ( -1.000000000000000000, 0.0000000000000000000, -0.0000000000000000000 ) ) ;
#48 = AXIS2_PLACEMENT_3D ( 'NONE', #342, #76, #247 ) ;
#49 = DIRECTION ( 'NONE',  ( 0.0000000000000000000, 0.0000000000000000000, 1.000000000000000000 ) ) ;
#50 = UNCERTAINTY_MEASURE_WITH_UNIT (LENGTH_MEASURE( 1.000000000000000082E-05 ), #348, 'distance_accuracy_value', 'NONE');
#51 = ORIENTED_EDGE ( 'NONE', *, *, #95, .T. ) ;
#52 = ORIENTED_EDGE ( 'NONE', *, *, #127, .F. ) ;
#53 = SURFACE_STYLE_FILL_AREA ( #202 ) ;
#54 = DIRECTION ( 'NONE',  ( -0.0000000000000000000, 0.0000000000000000000, 1.000000000000000000 ) ) ;
#55 = DIRECTION ( 'NONE',  ( 0.0000000000000000000, 0.0000000000000000000, -1.000000000000000000 ) ) ;
#56 = VERTEX_POINT ( 'NONE', #246 ) ;
#57 = SURFACE_SIDE_STYLE ('',( #53 ) ) ;
#58 = VERTEX_POINT ( 'NONE', #69 ) ;
#59 = LINE ( 'NONE', #31, #357 ) ;
#60 = CYLINDRICAL_SURFACE ( 'NONE', #280, 3.124999999999999112 ) ;
#61 = EDGE_CURVE ( 'NONE', #173, #195, #117, .T. ) ;
#62 = EDGE_CURVE ( 'NONE', #116, #354, #153, .T. ) ;
#63 = CARTESIAN_POINT ( 'NONE',  ( 0.0000000000000000000, 3.827021247335477817E-16, -3.124999999999999112 ) ) ;
#64 = DIRECTION ( 'NONE',  ( 0.0000000000000000000, 0.0000000000000000000, 1.000000000000000000 ) ) ;
#65 = AXIS2_PLACEMENT_3D ( 'NONE', #205, #27, #55 ) ;
#66 = DIRECTION ( 'NONE',  ( -1.000000000000000000, -0.0000000000000000000, -0.0000000000000000000 ) ) ;
#67 = DIRECTION ( 'NONE',  ( 0.0000000000000000000, 0.0000000000000000000, 1.000000000000000000 ) ) ;
#68 = PRODUCT_DEFINITION ( 'UNKNOWN', '', #266, #166 ) ;
#69 = CARTESIAN_POINT ( 'NONE',  ( 9.375000000000000000, 0.0000000000000000000, -1.515625000000000000 ) ) ;
#70 = CARTESIAN_POINT ( 'NONE',  ( 0.0000000000000000000, 0.0000000000000000000, 2.000000000000000000 ) ) ;
#71 = DIRECTION ( 'NONE',  ( -1.000000000000000000, -0.0000000000000000000, -0.0000000000000000000 ) ) ;
#72 = DIRECTION ( 'NONE',  ( -1.000000000000000000, -0.0000000000000000000, -0.0000000000000000000 ) ) ;
#73 = APPLICATION_PROTOCOL_DEFINITION ( 'draft international standard', 'automotive_design', 1998, #148 ) ;
#74 = AXIS2_PLACEMENT_3D ( 'NONE', #215, #185, #303 ) ;
#75 = CARTESIAN_POINT ( 'NONE',  ( 0.3125000000000005551, 0.0000000000000000000, 0.0000000000000000000 ) ) ;
#76 = DIRECTION ( 'NONE',  ( -1.000000000000000000, -0.0000000000000000000, -0.0000000000000000000 ) ) ;
#77 = ORIENTED_EDGE ( 'NONE', *, *, #61, .F. ) ;
#78 = DIRECTION ( 'NONE',  ( 0.0000000000000000000, 0.0000000000000000000, -1.000000000000000000 ) ) ;
#79 = AXIS2_PLACEMENT_3D ( 'NONE', #177, #232, #112 ) ;
#80 = ORIENTED_EDGE ( 'NONE', *, *, #136, .T. ) ;
#81 =( GEOMETRIC_REPRESENTATION_CONTEXT ( 3 ) GLOBAL_UNCERTAINTY_ASSIGNED_CONTEXT ( ( #194 ) ) GLOBAL_UNIT_ASSIGNED_CONTEXT ( ( #313, #346, #228 ) ) REPRESENTATION_CONTEXT ( 'NONE', 'WORKASPACE' ) );
#82 = CARTESIAN_POINT ( 'NONE',  ( 3.875000000000000444, 0.0000000000000000000, 1.999999999999999778 ) ) ;
#83 = ORIENTED_EDGE ( 'NONE', *, *, #62, .T. ) ;
#84 = EDGE_CURVE ( 'NONE', #292, #6, #192, .T. ) ;
#85 = DIRECTION ( 'NONE',  ( -1.000000000000000000, 0.0000000000000000000, -0.0000000000000000000 ) ) ;
#86 = AXIS2_PLACEMENT_3D ( 'NONE', #340, #71, #272 ) ;
#87 = MECHANICAL_DESIGN_GEOMETRIC_PRESENTATION_REPRESENTATION (  '', ( #172 ), #1 ) ;
#88 = LINE ( 'NONE', #34, #269 ) ;
#89 = FACE_OUTER_BOUND ( 'NONE', #309, .T. ) ;
#90 = CARTESIAN_POINT ( 'NONE',  ( 9.375000000000000000, 0.0000000000000000000, 0.0000000000000000000 ) ) ;
#91 =( NAMED_UNIT ( * ) SI_UNIT ( $, .STERADIAN. ) SOLID_ANGLE_UNIT ( ) );
#92 = DIRECTION ( 'NONE',  ( -1.000000000000000000, -0.0000000000000000000, -0.0000000000000000000 ) ) ;
#93 = VECTOR ( 'NONE', #187, 39.37007874015748143 ) ;
#94 = CYLINDRICAL_SURFACE ( 'NONE', #216, 2.999999999999999556 ) ;
#95 = EDGE_CURVE ( 'NONE', #345, #354, #327, .T. ) ;
#96 = LINE ( 'NONE', #119, #97 ) ;
#97 = VECTOR ( 'NONE', #188, 39.37007874015748143 ) ;
#98 = CIRCLE ( 'NONE', #351, 3.124999999999999556 ) ;
#99 = LINE ( 'NONE', #336, #178 ) ;
#100 = EDGE_CURVE ( 'NONE', #58, #376, #349, .T. ) ;
#101 = DIRECTION ( 'NONE',  ( 1.000000000000000000, 0.0000000000000000000, 0.0000000000000000000 ) ) ;
#102 = AXIS2_PLACEMENT_3D ( 'NONE', #359, #210, #325 ) ;
#103 = DIRECTION ( 'NONE',  ( -1.000000000000000000, -0.0000000000000000000, -0.0000000000000000000 ) ) ;
#104 = CIRCLE ( 'NONE', #248, 3.124999999999999112 ) ;
#105 = EDGE_LOOP ( 'NONE', ( #80, #83 ) ) ;
#106 = DIRECTION ( 'NONE',  ( -1.000000000000000000, -0.0000000000000000000, -0.0000000000000000000 ) ) ;
#107 = FACE_BOUND ( 'NONE', #105, .T. ) ;
#108 = ORIENTED_EDGE ( 'NONE', *, *, #224, .T. ) ;
#109 = ADVANCED_FACE ( 'NONE', ( #366 ), #302, .T. ) ;
#110 = ORIENTED_EDGE ( 'NONE', *, *, #299, .F. ) ;
#111 = ORIENTED_EDGE ( 'NONE', *, *, #218, .F. ) ;
#112 = DIRECTION ( 'NONE',  ( 0.0000000000000000000, 0.0000000000000000000, -1.000000000000000000 ) ) ;
#113 = PRESENTATION_STYLE_ASSIGNMENT (( #207 ) ) ;
#114 = CARTESIAN_POINT ( 'NONE',  ( 0.3125000000000005551, 3.827021247335477817E-16, -3.124999999999999112 ) ) ;
#115 = EDGE_LOOP ( 'NONE', ( #135, #227, #335, #184 ) ) ;
#116 = VERTEX_POINT ( 'NONE', #125 ) ;
#117 = CIRCLE ( 'NONE', #123, 3.124999999999999556 ) ;
#118 = ORIENTED_EDGE ( 'NONE', *, *, #208, .F. ) ;
#119 = CARTESIAN_POINT ( 'NONE',  ( 0.0000000000000000000, 3.673940397442058882E-16, -2.999999999999999556 ) ) ;
#120 = DIMENSIONAL_EXPONENTS ( 1.000000000000000000, 0.0000000000000000000, 0.0000000000000000000, 0.0000000000000000000, 0.0000000000000000000, 0.0000000000000000000, 0.0000000000000000000 ) ;
#121 = CARTESIAN_POINT ( 'NONE',  ( 3.875000000000000444, 3.673940397442058882E-16, -2.999999999999999556 ) ) ;
#122 = CARTESIAN_POINT ( 'NONE',  ( 0.0000000000000000000, 0.0000000000000000000, 0.0000000000000000000 ) ) ;
#123 = AXIS2_PLACEMENT_3D ( 'NONE', #370, #103, #226 ) ;
#124 = ADVANCED_FACE ( 'NONE', ( #44 ), #94, .T. ) ;
#125 = CARTESIAN_POINT ( 'NONE',  ( 3.875000000000000444, 2.449293598294705921E-16, -1.999999999999999778 ) ) ;
#126 = CARTESIAN_POINT ( 'NONE',  ( 9.375000000000000000, 0.0000000000000000000, 0.0000000000000000000 ) ) ;
#127 = EDGE_CURVE ( 'NONE', #362, #358, #96, .T. ) ;
#128 = COLOUR_RGB ( '',0.7921568627450980005, 0.8196078431372548767, 0.9333333333333333481 ) ;
#129 = MECHANICAL_DESIGN_GEOMETRIC_PRESENTATION_REPRESENTATION (  '', ( #295 ), #18 ) ;
#130 = CARTESIAN_POINT ( 'NONE',  ( 0.0000000000000000000, 0.0000000000000000000, 3.124999999999999556 ) ) ;
#131 = DIRECTION ( 'NONE',  ( 1.000000000000000000, 0.0000000000000000000, 0.0000000000000000000 ) ) ;
#132 = DIRECTION ( 'NONE',  ( 0.0000000000000000000, 0.0000000000000000000, 1.000000000000000000 ) ) ;
#133 = DIRECTION ( 'NONE',  ( -1.000000000000000000, -0.0000000000000000000, -0.0000000000000000000 ) ) ;
#134 = AXIS2_PLACEMENT_3D ( 'NONE', #181, #212, #35 ) ;
#135 = ORIENTED_EDGE ( 'NONE', *, *, #143, .F. ) ;
#136 = EDGE_CURVE ( 'NONE', #354, #116, #289, .T. ) ;
#137 = CARTESIAN_POINT ( 'NONE',  ( 3.875000000000000444, 0.0000000000000000000, 2.999999999999999556 ) ) ;
#138 = ORIENTED_EDGE ( 'NONE', *, *, #168, .F. ) ;
#139 = LENGTH_MEASURE_WITH_UNIT ( LENGTH_MEASURE( 0.02539999999999999897 ), #19 );
#140 = CYLINDRICAL_SURFACE ( 'NONE', #329, 2.999999999999999556 ) ;
#141 = EDGE_LOOP ( 'NONE', ( #257, #22 ) ) ;
#142 = CARTESIAN_POINT ( 'NONE',  ( 9.375000000000000000, 0.0000000000000000000, 2.000000000000000000 ) ) ;
#143 = EDGE_CURVE ( 'NONE', #292, #195, #297, .T. ) ;
#144 = ORIENTED_EDGE ( 'NONE', *, *, #61, .T. ) ;
#145 = EDGE_LOOP ( 'NONE', ( #52, #265, #315, #179 ) ) ;
#146 = ORIENTED_EDGE ( 'NONE', *, *, #230, .T. ) ;
#147 = FILL_AREA_STYLE_COLOUR ( '', #320 ) ;
#148 = APPLICATION_CONTEXT ( 'automotive_design' ) ;
#149 = ORIENTED_EDGE ( 'NONE', *, *, #143, .T. ) ;
#150 = ADVANCED_BREP_SHAPE_REPRESENTATION ( 'AC-6', ( #355, #234 ), #81 ) ;
#151 = EDGE_LOOP ( 'NONE', ( #26, #197, #51, #382 ) ) ;
#152 = FACE_OUTER_BOUND ( 'NONE', #209, .T. ) ;
#153 = CIRCLE ( 'NONE', #48, 1.999999999999999778 ) ;
#154 = ADVANCED_FACE ( 'NONE', ( #152 ), #298, .F. ) ;
#155 = CARTESIAN_POINT ( 'NONE',  ( 0.3125000000000005551, 2.999999999999999556, 0.0000000000000000000 ) ) ;
#156 = CARTESIAN_POINT ( 'NONE',  ( 0.0000000000000000000, 0.0000000000000000000, -1.515625000000000000 ) ) ;
#157 = EDGE_CURVE ( 'NONE', #358, #239, #367, .T. ) ;
#158 = FACE_BOUND ( 'NONE', #252, .T. ) ;
#159 = CIRCLE ( 'NONE', #371, 2.000000000000000000 ) ;
#160 = DIRECTION ( 'NONE',  ( -0.0000000000000000000, 0.0000000000000000000, 1.000000000000000000 ) ) ;
#161 = CARTESIAN_POINT ( 'NONE',  ( 0.0000000000000000000, 0.0000000000000000000, 0.0000000000000000000 ) ) ;
#162 = EDGE_CURVE ( 'NONE', #239, #358, #200, .T. ) ;
#163 = ORIENTED_EDGE ( 'NONE', *, *, #100, .F. ) ;
#164 = AXIS2_PLACEMENT_3D ( 'NONE', #368, #72, #132 ) ;
#165 = DIRECTION ( 'NONE',  ( 0.0000000000000000000, 0.0000000000000000000, 1.000000000000000000 ) ) ;
#166 = PRODUCT_DEFINITION_CONTEXT ( 'detailed design', #148, 'design' ) ;
#167 = ORIENTED_EDGE ( 'NONE', *, *, #282, .F. ) ;
#168 = EDGE_CURVE ( 'NONE', #362, #291, #341, .T. ) ;
#169 = CARTESIAN_POINT ( 'NONE',  ( 9.375000000000000000, 1.856105304957707054E-16, 1.515625000000000000 ) ) ;
#170 = SURFACE_STYLE_USAGE ( .BOTH. , #57 ) ;
#171 = AXIS2_PLACEMENT_3D ( 'NONE', #317, #85, #229 ) ;
#172 = STYLED_ITEM ( 'NONE', ( #176 ), #355 ) ;
#173 = VERTEX_POINT ( 'NONE', #130 ) ;
#174 = ORIENTED_EDGE ( 'NONE', *, *, #100, .T. ) ;
#175 = ADVANCED_FACE ( 'NONE', ( #13, #308 ), #15, .F. ) ;
#176 = PRESENTATION_STYLE_ASSIGNMENT (( #170 ) ) ;
#177 = CARTESIAN_POINT ( 'NONE',  ( 0.0000000000000000000, 0.0000000000000000000, 0.0000000000000000000 ) ) ;
#178 = VECTOR ( 'NONE', #190, 39.37007874015748143 ) ;
#179 = ORIENTED_EDGE ( 'NONE', *, *, #157, .F. ) ;
#180 = DIRECTION ( 'NONE',  ( 1.000000000000000000, -0.0000000000000000000, -0.0000000000000000000 ) ) ;
#181 = CARTESIAN_POINT ( 'NONE',  ( 9.375000000000000000, 0.0000000000000000000, 0.0000000000000000000 ) ) ;
#182 = LINE ( 'NONE', #156, #206 ) ;
#183 = LENGTH_MEASURE_WITH_UNIT ( LENGTH_MEASURE( 0.02539999999999999897 ), #360 );
#184 = ORIENTED_EDGE ( 'NONE', *, *, #372, .F. ) ;
#185 = DIRECTION ( 'NONE',  ( -1.000000000000000000, -0.0000000000000000000, -0.0000000000000000000 ) ) ;
#186 = CYLINDRICAL_SURFACE ( 'NONE', #365, 2.000000000000000000 ) ;
#187 = DIRECTION ( 'NONE',  ( -1.000000000000000000, -0.0000000000000000000, -0.0000000000000000000 ) ) ;
#188 = DIRECTION ( 'NONE',  ( -1.000000000000000000, -0.0000000000000000000, -0.0000000000000000000 ) ) ;
#189 = CARTESIAN_POINT ( 'NONE',  ( 0.3125000000000005551, 0.0000000000000000000, 3.124999999999999112 ) ) ;
#190 = DIRECTION ( 'NONE',  ( -1.000000000000000000, -0.0000000000000000000, -0.0000000000000000000 ) ) ;
#191 = CYLINDRICAL_SURFACE ( 'NONE', #270, 3.124999999999999112 ) ;
#192 = CIRCLE ( 'NONE', #377, 3.124999999999999112 ) ;
#193 = DIRECTION ( 'NONE',  ( -1.000000000000000000, -0.0000000000000000000, -0.0000000000000000000 ) ) ;
#194 = UNCERTAINTY_MEASURE_WITH_UNIT (LENGTH_MEASURE( 1.000000000000000082E-05 ), #313, 'distance_accuracy_value', 'NONE');
#195 = VERTEX_POINT ( 'NONE', #11 ) ;
#196 = EDGE_CURVE ( 'NONE', #291, #239, #99, .T. ) ;
#197 = ORIENTED_EDGE ( 'NONE', *, *, #208, .T. ) ;
#198 = DIRECTION ( 'NONE',  ( 1.000000000000000000, -0.0000000000000000000, -0.0000000000000000000 ) ) ;
#199 = ORIENTED_EDGE ( 'NONE', *, *, #275, .F. ) ;
#200 = CIRCLE ( 'NONE', #37, 2.999999999999999556 ) ;
#201 = VERTEX_POINT ( 'NONE', #223 ) ;
#202 = FILL_AREA_STYLE ('',( #310 ) ) ;
#203 = EDGE_LOOP ( 'NONE', ( #281, #149, #77, #167 ) ) ;
#204 = DIRECTION ( 'NONE',  ( -1.000000000000000000, -0.0000000000000000000, -0.0000000000000000000 ) ) ;
#205 = CARTESIAN_POINT ( 'NONE',  ( 0.0000000000000000000, 0.0000000000000000000, 0.0000000000000000000 ) ) ;
#206 = VECTOR ( 'NONE', #180, 39.37007874015748143 ) ;
#207 = SURFACE_STYLE_USAGE ( .BOTH. , #287 ) ;
#208 = EDGE_CURVE ( 'NONE', #201, #345, #12, .T. ) ;
#209 = EDGE_LOOP ( 'NONE', ( #110, #199, #323, #174 ) ) ;
#210 = DIRECTION ( 'NONE',  ( -1.000000000000000000, -0.0000000000000000000, -0.0000000000000000000 ) ) ;
#211 = PLANE ( 'NONE',  #254 ) ;
#212 = DIRECTION ( 'NONE',  ( 1.000000000000000000, 0.0000000000000000000, 0.0000000000000000000 ) ) ;
#213 = EDGE_LOOP ( 'NONE', ( #353, #237, #290, #286 ) ) ;
#214 = ADVANCED_FACE ( 'NONE', ( #251 ), #191, .T. ) ;
#215 = CARTESIAN_POINT ( 'NONE',  ( 3.875000000000000444, 0.0000000000000000000, 0.0000000000000000000 ) ) ;
#216 = AXIS2_PLACEMENT_3D ( 'NONE', #161, #66, #9 ) ;
#217 = AXIS2_PLACEMENT_3D ( 'NONE', #126, #47, #160 ) ;
#218 = EDGE_CURVE ( 'NONE', #6, #292, #104, .T. ) ;
#219 = CARTESIAN_POINT ( 'NONE',  ( 0.3125000000000005551, 0.0000000000000000000, 0.0000000000000000000 ) ) ;
#220 = SHAPE_DEFINITION_REPRESENTATION ( #273, #150 ) ;
#221 = PLANE ( 'NONE',  #217 ) ;
#222 = DIRECTION ( 'NONE',  ( 0.0000000000000000000, 0.0000000000000000000, -1.000000000000000000 ) ) ;
#223 = CARTESIAN_POINT ( 'NONE',  ( 9.375000000000000000, 2.449293598294706414E-16, -2.000000000000000000 ) ) ;
#224 = EDGE_CURVE ( 'NONE', #201, #116, #88, .T. ) ;
#225 = AXIS2_PLACEMENT_3D ( 'NONE', #338, #133, #304 ) ;
#226 = DIRECTION ( 'NONE',  ( 0.0000000000000000000, 0.0000000000000000000, 1.000000000000000000 ) ) ;
#227 = ORIENTED_EDGE ( 'NONE', *, *, #84, .T. ) ;
#228 =( NAMED_UNIT ( * ) SI_UNIT ( $, .STERADIAN. ) SOLID_ANGLE_UNIT ( ) );
#229 = DIRECTION ( 'NONE',  ( -0.0000000000000000000, 0.0000000000000000000, 1.000000000000000000 ) ) ;
#230 = EDGE_CURVE ( 'NONE', #291, #362, #333, .T. ) ;
#231 = ORIENTED_EDGE ( 'NONE', *, *, #95, .F. ) ;
#232 = DIRECTION ( 'NONE',  ( 1.000000000000000000, -0.0000000000000000000, -0.0000000000000000000 ) ) ;
#233 = AXIS2_PLACEMENT_3D ( 'NONE', #32, #378, #78 ) ;
#234 = AXIS2_PLACEMENT_3D ( 'NONE', #46, #165, #131 ) ;
#235 = EDGE_LOOP ( 'NONE', ( #144, #17 ) ) ;
#236 = CYLINDRICAL_SURFACE ( 'NONE', #79, 1.515625000000000000 ) ;
#237 = ORIENTED_EDGE ( 'NONE', *, *, #299, .T. ) ;
#238 = PLANE ( 'NONE',  #171 ) ;
#239 = VERTEX_POINT ( 'NONE', #364 ) ;
#240 = PRODUCT_RELATED_PRODUCT_CATEGORY ( 'part', '', ( #10 ) ) ;
#241 = EDGE_LOOP ( 'NONE', ( #146, #379, #29, #261 ) ) ;
#242 = DIRECTION ( 'NONE',  ( -1.000000000000000000, -0.0000000000000000000, -0.0000000000000000000 ) ) ;
#243 = DIRECTION ( 'NONE',  ( 0.0000000000000000000, 0.0000000000000000000, 1.000000000000000000 ) ) ;
#244 = CARTESIAN_POINT ( 'NONE',  ( 0.0000000000000000000, 0.0000000000000000000, 0.0000000000000000000 ) ) ;
#245 = DIRECTION ( 'NONE',  ( -1.000000000000000000, -0.0000000000000000000, -0.0000000000000000000 ) ) ;
#246 = CARTESIAN_POINT ( 'NONE',  ( 0.0000000000000000000, 0.0000000000000000000, -1.515625000000000000 ) ) ;
#247 = DIRECTION ( 'NONE',  ( 0.0000000000000000000, 0.0000000000000000000, 1.000000000000000000 ) ) ;
#248 = AXIS2_PLACEMENT_3D ( 'NONE', #75, #193, #49 ) ;
#249 = CARTESIAN_POINT ( 'NONE',  ( 0.0000000000000000000, 2.999999999999999112, 0.0000000000000000000 ) ) ;
#250 = EDGE_CURVE ( 'NONE', #376, #58, #319, .T. ) ;
#251 = FACE_OUTER_BOUND ( 'NONE', #203, .T. ) ;
#252 = EDGE_LOOP ( 'NONE', ( #163, #380 ) ) ;
#253 = CLOSED_SHELL ( 'NONE', ( #214, #311, #109, #352, #124, #40, #5, #326, #175, #154, #305, #375 ) ) ;
#254 = AXIS2_PLACEMENT_3D ( 'NONE', #155, #24, #54 ) ;
#255 = ORIENTED_EDGE ( 'NONE', *, *, #258, .T. ) ;
#256 = LINE ( 'NONE', #25, #16 ) ;
#257 = ORIENTED_EDGE ( 'NONE', *, *, #162, .T. ) ;
#258 = EDGE_CURVE ( 'NONE', #345, #201, #159, .T. ) ;
#259 = FACE_OUTER_BOUND ( 'NONE', #213, .T. ) ;
#260 = AXIS2_PLACEMENT_3D ( 'NONE', #122, #8, #296 ) ;
#261 = ORIENTED_EDGE ( 'NONE', *, *, #196, .F. ) ;
#262 = FILL_AREA_STYLE ('',( #147 ) ) ;
#263 = SURFACE_STYLE_FILL_AREA ( #262 ) ;
#264 = CARTESIAN_POINT ( 'NONE',  ( 0.0000000000000000000, 0.0000000000000000000, 0.0000000000000000000 ) ) ;
#265 = ORIENTED_EDGE ( 'NONE', *, *, #168, .T. ) ;
#266 = PRODUCT_DEFINITION_FORMATION_WITH_SPECIFIED_SOURCE ( 'ANY', '', #10, .NOT_KNOWN. ) ;
#267 = CARTESIAN_POINT ( 'NONE',  ( 0.3125000000000005551, 0.0000000000000000000, 0.0000000000000000000 ) ) ;
#268 = ORIENTED_EDGE ( 'NONE', *, *, #230, .F. ) ;
#269 = VECTOR ( 'NONE', #242, 39.37007874015748143 ) ;
#270 = AXIS2_PLACEMENT_3D ( 'NONE', #45, #306, #369 ) ;
#271 = EDGE_CURVE ( 'NONE', #56, #58, #182, .T. ) ;
#272 = DIRECTION ( 'NONE',  ( 0.0000000000000000000, 0.0000000000000000000, 1.000000000000000000 ) ) ;
#273 = PRODUCT_DEFINITION_SHAPE ( 'NONE', 'NONE',  #68 ) ;
#274 = DIRECTION ( 'NONE',  ( 0.0000000000000000000, 0.0000000000000000000, 1.000000000000000000 ) ) ;
#275 = EDGE_CURVE ( 'NONE', #56, #283, #42, .T. ) ;
#276 = DIRECTION ( 'NONE',  ( 0.0000000000000000000, 0.0000000000000000000, -1.000000000000000000 ) ) ;
#277 = UNCERTAINTY_MEASURE_WITH_UNIT (LENGTH_MEASURE( 1.000000000000000082E-05 ), #41, 'distance_accuracy_value', 'NONE');
#278 = ORIENTED_EDGE ( 'NONE', *, *, #136, .F. ) ;
#279 = ORIENTED_EDGE ( 'NONE', *, *, #84, .F. ) ;
#280 = AXIS2_PLACEMENT_3D ( 'NONE', #264, #106, #347 ) ;
#281 = ORIENTED_EDGE ( 'NONE', *, *, #218, .T. ) ;
#282 = EDGE_CURVE ( 'NONE', #6, #173, #59, .T. ) ;
#283 = VERTEX_POINT ( 'NONE', #20 ) ;
#284 =( NAMED_UNIT ( * ) PLANE_ANGLE_UNIT ( ) SI_UNIT ( $, .RADIAN. ) );
#285 = ORIENTED_EDGE ( 'NONE', *, *, #275, .T. ) ;
#286 = ORIENTED_EDGE ( 'NONE', *, *, #271, .F. ) ;
#287 = SURFACE_SIDE_STYLE ('',( #263 ) ) ;
#288 = FACE_OUTER_BOUND ( 'NONE', #312, .T. ) ;
#289 = CIRCLE ( 'NONE', #74, 1.999999999999999778 ) ;
#290 = ORIENTED_EDGE ( 'NONE', *, *, #250, .T. ) ;
#291 = VERTEX_POINT ( 'NONE', #137 ) ;
#292 = VERTEX_POINT ( 'NONE', #114 ) ;
#293 =( NAMED_UNIT ( * ) PLANE_ANGLE_UNIT ( ) SI_UNIT ( $, .RADIAN. ) );
#294 = CIRCLE ( 'NONE', #65, 1.515625000000000000 ) ;
#295 = STYLED_ITEM ( 'NONE', ( #113 ), #150 ) ;
#296 = DIRECTION ( 'NONE',  ( 0.0000000000000000000, 0.0000000000000000000, 1.000000000000000000 ) ) ;
#297 = LINE ( 'NONE', #63, #93 ) ;
#298 = CYLINDRICAL_SURFACE ( 'NONE', #301, 1.515625000000000000 ) ;
#299 = EDGE_CURVE ( 'NONE', #283, #376, #256, .T. ) ;
#300 = FACE_OUTER_BOUND ( 'NONE', #151, .T. ) ;
#301 = AXIS2_PLACEMENT_3D ( 'NONE', #244, #363, #276 ) ;
#302 = CYLINDRICAL_SURFACE ( 'NONE', #260, 2.000000000000000000 ) ;
#303 = DIRECTION ( 'NONE',  ( 0.0000000000000000000, 0.0000000000000000000, 1.000000000000000000 ) ) ;
#304 = DIRECTION ( 'NONE',  ( 0.0000000000000000000, 0.0000000000000000000, 1.000000000000000000 ) ) ;
#305 = ADVANCED_FACE ( 'NONE', ( #381 ), #60, .T. ) ;
#306 = DIRECTION ( 'NONE',  ( -1.000000000000000000, -0.0000000000000000000, -0.0000000000000000000 ) ) ;
#307 = AXIS2_PLACEMENT_3D ( 'NONE', #249, #101, #222 ) ;
#308 = FACE_OUTER_BOUND ( 'NONE', #235, .T. ) ;
#309 = EDGE_LOOP ( 'NONE', ( #111, #279 ) ) ;
#310 = FILL_AREA_STYLE_COLOUR ( '', #128 ) ;
#311 = ADVANCED_FACE ( 'NONE', ( #259 ), #236, .F. ) ;
#312 = EDGE_LOOP ( 'NONE', ( #268, #138 ) ) ;
#313 =( CONVERSION_BASED_UNIT ( 'INCH', #139 ) LENGTH_UNIT ( ) NAMED_UNIT ( #356 ) );
#314 = PRESENTATION_LAYER_ASSIGNMENT (  '', '', ( #295 ) ) ;
#315 = ORIENTED_EDGE ( 'NONE', *, *, #196, .T. ) ;
#316 =( LENGTH_UNIT ( ) NAMED_UNIT ( * ) SI_UNIT ( $, .METRE. ) );
#317 = CARTESIAN_POINT ( 'NONE',  ( 3.875000000000000444, 1.999999999999999778, 0.0000000000000000000 ) ) ;
#318 = FACE_OUTER_BOUND ( 'NONE', #241, .T. ) ;
#319 = CIRCLE ( 'NONE', #134, 1.515625000000000000 ) ;
#320 = COLOUR_RGB ( '',0.7921568627450980005, 0.8196078431372548767, 0.9333333333333333481 ) ;
#321 = ORIENTED_EDGE ( 'NONE', *, *, #331, .T. ) ;
#322 = EDGE_LOOP ( 'NONE', ( #28, #118 ) ) ;
#323 = ORIENTED_EDGE ( 'NONE', *, *, #271, .T. ) ;
#324 = EDGE_LOOP ( 'NONE', ( #285, #321 ) ) ;
#325 = DIRECTION ( 'NONE',  ( 0.0000000000000000000, 0.0000000000000000000, 1.000000000000000000 ) ) ;
#326 = ADVANCED_FACE ( 'NONE', ( #288, #107 ), #238, .F. ) ;
#327 = LINE ( 'NONE', #70, #30 ) ;
#328 = CARTESIAN_POINT ( 'NONE',  ( 9.375000000000000000, 0.0000000000000000000, 0.0000000000000000000 ) ) ;
#329 = AXIS2_PLACEMENT_3D ( 'NONE', #374, #344, #350 ) ;
#330 = DIRECTION ( 'NONE',  ( 0.0000000000000000000, 0.0000000000000000000, -1.000000000000000000 ) ) ;
#331 = EDGE_CURVE ( 'NONE', #283, #56, #294, .T. ) ;
#332 = CARTESIAN_POINT ( 'NONE',  ( 0.0000000000000000000, 0.0000000000000000000, 0.0000000000000000000 ) ) ;
#333 = CIRCLE ( 'NONE', #102, 2.999999999999999556 ) ;
#334 = DIRECTION ( 'NONE',  ( -1.000000000000000000, -0.0000000000000000000, -0.0000000000000000000 ) ) ;
#335 = ORIENTED_EDGE ( 'NONE', *, *, #282, .T. ) ;
#336 = CARTESIAN_POINT ( 'NONE',  ( 0.0000000000000000000, 0.0000000000000000000, 2.999999999999999556 ) ) ;
#337 = DIRECTION ( 'NONE',  ( -1.000000000000000000, -0.0000000000000000000, -0.0000000000000000000 ) ) ;
#338 = CARTESIAN_POINT ( 'NONE',  ( 9.375000000000000000, 0.0000000000000000000, 0.0000000000000000000 ) ) ;
#339 = APPLICATION_PROTOCOL_DEFINITION ( 'draft international standard', 'automotive_design', 1998, #21 ) ;
#340 = CARTESIAN_POINT ( 'NONE',  ( 3.875000000000000444, 0.0000000000000000000, 0.0000000000000000000 ) ) ;
#341 = CIRCLE ( 'NONE', #86, 2.999999999999999556 ) ;
#342 = CARTESIAN_POINT ( 'NONE',  ( 3.875000000000000444, 0.0000000000000000000, 0.0000000000000000000 ) ) ;
#343 = DIRECTION ( 'NONE',  ( -1.000000000000000000, -0.0000000000000000000, -0.0000000000000000000 ) ) ;
#344 = DIRECTION ( 'NONE',  ( -1.000000000000000000, -0.0000000000000000000, -0.0000000000000000000 ) ) ;
#345 = VERTEX_POINT ( 'NONE', #142 ) ;
#346 =( NAMED_UNIT ( * ) PLANE_ANGLE_UNIT ( ) SI_UNIT ( $, .RADIAN. ) );
#347 = DIRECTION ( 'NONE',  ( 0.0000000000000000000, 0.0000000000000000000, 1.000000000000000000 ) ) ;
#348 =( CONVERSION_BASED_UNIT ( 'INCH', #373 ) LENGTH_UNIT ( ) NAMED_UNIT ( #33 ) );
#349 = CIRCLE ( 'NONE', #383, 1.515625000000000000 ) ;
#350 = DIRECTION ( 'NONE',  ( 0.0000000000000000000, 0.0000000000000000000, 1.000000000000000000 ) ) ;
#351 = AXIS2_PLACEMENT_3D ( 'NONE', #2, #245, #243 ) ;
#352 = ADVANCED_FACE ( 'NONE', ( #318 ), #140, .T. ) ;
#353 = ORIENTED_EDGE ( 'NONE', *, *, #331, .F. ) ;
#354 = VERTEX_POINT ( 'NONE', #82 ) ;
#355 = MANIFOLD_SOLID_BREP ( 'Revolve2', #253 ) ;
#356 = DIMENSIONAL_EXPONENTS ( 1.000000000000000000, 0.0000000000000000000, 0.0000000000000000000, 0.0000000000000000000, 0.0000000000000000000, 0.0000000000000000000, 0.0000000000000000000 ) ;
#357 = VECTOR ( 'NONE', #204, 39.37007874015748143 ) ;
#358 = VERTEX_POINT ( 'NONE', #4 ) ;
#359 = CARTESIAN_POINT ( 'NONE',  ( 3.875000000000000444, 0.0000000000000000000, 0.0000000000000000000 ) ) ;
#360 =( LENGTH_UNIT ( ) NAMED_UNIT ( * ) SI_UNIT ( $, .METRE. ) );
#361 = EDGE_LOOP ( 'NONE', ( #255, #108, #278, #231 ) ) ;
#362 = VERTEX_POINT ( 'NONE', #121 ) ;
#363 = DIRECTION ( 'NONE',  ( 1.000000000000000000, -0.0000000000000000000, -0.0000000000000000000 ) ) ;
#364 = CARTESIAN_POINT ( 'NONE',  ( 0.3125000000000005551, 0.0000000000000000000, 2.999999999999999556 ) ) ;
#365 = AXIS2_PLACEMENT_3D ( 'NONE', #332, #337, #67 ) ;
#366 = FACE_OUTER_BOUND ( 'NONE', #361, .T. ) ;
#367 = CIRCLE ( 'NONE', #164, 2.999999999999999556 ) ;
#368 = CARTESIAN_POINT ( 'NONE',  ( 0.3125000000000005551, 0.0000000000000000000, 0.0000000000000000000 ) ) ;
#369 = DIRECTION ( 'NONE',  ( 0.0000000000000000000, 0.0000000000000000000, 1.000000000000000000 ) ) ;
#370 = CARTESIAN_POINT ( 'NONE',  ( 0.0000000000000000000, 0.0000000000000000000, 0.0000000000000000000 ) ) ;
#371 = AXIS2_PLACEMENT_3D ( 'NONE', #328, #92, #64 ) ;
#372 = EDGE_CURVE ( 'NONE', #195, #173, #98, .T. ) ;
#373 = LENGTH_MEASURE_WITH_UNIT ( LENGTH_MEASURE( 0.02539999999999999897 ), #316 );
#374 = CARTESIAN_POINT ( 'NONE',  ( 0.0000000000000000000, 0.0000000000000000000, 0.0000000000000000000 ) ) ;
#375 = ADVANCED_FACE ( 'NONE', ( #89, #36 ), #211, .F. ) ;
#376 = VERTEX_POINT ( 'NONE', #169 ) ;
#377 = AXIS2_PLACEMENT_3D ( 'NONE', #267, #334, #7 ) ;
#378 = DIRECTION ( 'NONE',  ( 1.000000000000000000, 0.0000000000000000000, 0.0000000000000000000 ) ) ;
#379 = ORIENTED_EDGE ( 'NONE', *, *, #127, .T. ) ;
#380 = ORIENTED_EDGE ( 'NONE', *, *, #250, .F. ) ;
#381 = FACE_OUTER_BOUND ( 'NONE', #115, .T. ) ;
#382 = ORIENTED_EDGE ( 'NONE', *, *, #62, .F. ) ;
#383 = AXIS2_PLACEMENT_3D ( 'NONE', #90, #3, #330 ) ;
ENDSEC;
END-ISO-10303-21;
