ISO-10303-21;
HEADER;
FILE_DESCRIPTION (( 'STEP AP214' ),
    '1' );
FILE_NAME ('AC-12.STEP',
    '2020-10-26T23:44:54',
    ( '' ),
    ( '' ),
    'SwSTEP 2.0',
    'SolidWorks 2019',
    '' );
FILE_SCHEMA (( 'AUTOMOTIVE_DESIGN' ));
ENDSEC;

DATA;
#1 = PRESENTATION_LAYER_ASSIGNMENT (  '', '', ( #16 ) ) ;
#2 = CIRCLE ( 'NONE', #186, 1.999999999999999778 ) ;
#3 = ADVANCED_FACE ( 'NONE', ( #132 ), #254, .T. ) ;
#4 = EDGE_CURVE ( 'NONE', #123, #219, #327, .T. ) ;
#5 = VERTEX_POINT ( 'NONE', #171 ) ;
#6 = LINE ( 'NONE', #30, #332 ) ;
#7 = ORIENTED_EDGE ( 'NONE', *, *, #211, .T. ) ;
#8 = VERTEX_POINT ( 'NONE', #36 ) ;
#9 = ORIENTED_EDGE ( 'NONE', *, *, #307, .F. ) ;
#10 = ORIENTED_EDGE ( 'NONE', *, *, #127, .F. ) ;
#11 = ORIENTED_EDGE ( 'NONE', *, *, #109, .F. ) ;
#12 = DIMENSIONAL_EXPONENTS ( 1.000000000000000000, 0.0000000000000000000, 0.0000000000000000000, 0.0000000000000000000, 0.0000000000000000000, 0.0000000000000000000, 0.0000000000000000000 ) ;
#13 = ORIENTED_EDGE ( 'NONE', *, *, #185, .F. ) ;
#14 = ORIENTED_EDGE ( 'NONE', *, *, #141, .T. ) ;
#15 =( LENGTH_UNIT ( ) NAMED_UNIT ( * ) SI_UNIT ( $, .METRE. ) );
#16 = STYLED_ITEM ( 'NONE', ( #104 ), #93 ) ;
#17 =( GEOMETRIC_REPRESENTATION_CONTEXT ( 3 ) GLOBAL_UNCERTAINTY_ASSIGNED_CONTEXT ( ( #44 ) ) GLOBAL_UNIT_ASSIGNED_CONTEXT ( ( #348, #256, #198 ) ) REPRESENTATION_CONTEXT ( 'NONE', 'WORKASPACE' ) );
#18 = DIRECTION ( 'NONE',  ( 0.0000000000000000000, 0.0000000000000000000, 1.000000000000000000 ) ) ;
#19 = CARTESIAN_POINT ( 'NONE',  ( 0.0000000000000000000, 0.0000000000000000000, 0.0000000000000000000 ) ) ;
#20 = FILL_AREA_STYLE ('',( #285 ) ) ;
#21 = DIRECTION ( 'NONE',  ( -1.000000000000000000, -0.0000000000000000000, -0.0000000000000000000 ) ) ;
#22 = DIRECTION ( 'NONE',  ( 1.000000000000000000, -0.0000000000000000000, -0.0000000000000000000 ) ) ;
#23 = AXIS2_PLACEMENT_3D ( 'NONE', #319, #54, #110 ) ;
#24 = DIRECTION ( 'NONE',  ( -1.000000000000000000, -0.0000000000000000000, -0.0000000000000000000 ) ) ;
#25 = DIRECTION ( 'NONE',  ( 0.0000000000000000000, 0.0000000000000000000, 1.000000000000000000 ) ) ;
#26 = ADVANCED_FACE ( 'NONE', ( #365, #363 ), #97, .F. ) ;
#27 = DIRECTION ( 'NONE',  ( -0.0000000000000000000, 0.0000000000000000000, 1.000000000000000000 ) ) ;
#28 = MECHANICAL_DESIGN_GEOMETRIC_PRESENTATION_REPRESENTATION (  '', ( #16 ), #207 ) ;
#29 = ORIENTED_EDGE ( 'NONE', *, *, #4, .T. ) ;
#30 = CARTESIAN_POINT ( 'NONE',  ( 0.0000000000000000000, 0.0000000000000000000, 2.000000000000000000 ) ) ;
#31 = ORIENTED_EDGE ( 'NONE', *, *, #307, .T. ) ;
#32 = ORIENTED_EDGE ( 'NONE', *, *, #175, .T. ) ;
#33 = DIMENSIONAL_EXPONENTS ( 1.000000000000000000, 0.0000000000000000000, 0.0000000000000000000, 0.0000000000000000000, 0.0000000000000000000, 0.0000000000000000000, 0.0000000000000000000 ) ;
#34 = DIRECTION ( 'NONE',  ( -0.0000000000000000000, 0.0000000000000000000, 1.000000000000000000 ) ) ;
#35 = AXIS2_PLACEMENT_3D ( 'NONE', #139, #55, #287 ) ;
#36 = CARTESIAN_POINT ( 'NONE',  ( 9.375000000000000000, 2.449293598294706414E-16, -2.000000000000000000 ) ) ;
#37 = DIRECTION ( 'NONE',  ( 0.0000000000000000000, 0.0000000000000000000, 1.000000000000000000 ) ) ;
#38 = ORIENTED_EDGE ( 'NONE', *, *, #4, .F. ) ;
#39 = EDGE_CURVE ( 'NONE', #299, #160, #101, .T. ) ;
#40 = FACE_BOUND ( 'NONE', #66, .T. ) ;
#41 = CARTESIAN_POINT ( 'NONE',  ( 0.0000000000000000000, 0.0000000000000000000, 0.0000000000000000000 ) ) ;
#42 = AXIS2_PLACEMENT_3D ( 'NONE', #99, #225, #153 ) ;
#43 = FILL_AREA_STYLE ('',( #133 ) ) ;
#44 = UNCERTAINTY_MEASURE_WITH_UNIT (LENGTH_MEASURE( 1.000000000000000082E-05 ), #348, 'distance_accuracy_value', 'NONE');
#45 = DIRECTION ( 'NONE',  ( 1.000000000000000000, 0.0000000000000000000, 0.0000000000000000000 ) ) ;
#46 = DIRECTION ( 'NONE',  ( -1.000000000000000000, -0.0000000000000000000, -0.0000000000000000000 ) ) ;
#47 = EDGE_CURVE ( 'NONE', #134, #359, #286, .T. ) ;
#48 = VERTEX_POINT ( 'NONE', #235 ) ;
#49 = DIRECTION ( 'NONE',  ( 0.0000000000000000000, 0.0000000000000000000, 1.000000000000000000 ) ) ;
#50 = PRODUCT_CONTEXT ( 'NONE', #366, 'mechanical' ) ;
#51 = FACE_OUTER_BOUND ( 'NONE', #189, .T. ) ;
#52 = CIRCLE ( 'NONE', #374, 2.000000000000000000 ) ;
#53 = CIRCLE ( 'NONE', #176, 6.000000000000000888 ) ;
#54 = DIRECTION ( 'NONE',  ( -1.000000000000000000, 0.0000000000000000000, -0.0000000000000000000 ) ) ;
#55 = DIRECTION ( 'NONE',  ( 1.000000000000000000, 0.0000000000000000000, 0.0000000000000000000 ) ) ;
#56 = SURFACE_SIDE_STYLE ('',( #259 ) ) ;
#57 = DIRECTION ( 'NONE',  ( -1.000000000000000000, -0.0000000000000000000, -0.0000000000000000000 ) ) ;
#58 =( GEOMETRIC_REPRESENTATION_CONTEXT ( 3 ) GLOBAL_UNCERTAINTY_ASSIGNED_CONTEXT ( ( #165 ) ) GLOBAL_UNIT_ASSIGNED_CONTEXT ( ( #213, #206, #267 ) ) REPRESENTATION_CONTEXT ( 'NONE', 'WORKASPACE' ) );
#59 = DIRECTION ( 'NONE',  ( 0.0000000000000000000, 0.0000000000000000000, -1.000000000000000000 ) ) ;
#60 = CYLINDRICAL_SURFACE ( 'NONE', #150, 2.000000000000000000 ) ;
#61 = ADVANCED_FACE ( 'NONE', ( #321, #202 ), #234, .F. ) ;
#62 = EDGE_LOOP ( 'NONE', ( #29, #249 ) ) ;
#63 = CARTESIAN_POINT ( 'NONE',  ( 0.0000000000000000000, 7.500961644777538671E-16, -6.125000000000000888 ) ) ;
#64 = ORIENTED_EDGE ( 'NONE', *, *, #362, .F. ) ;
#65 = CIRCLE ( 'NONE', #367, 6.000000000000000888 ) ;
#66 = EDGE_LOOP ( 'NONE', ( #337, #103 ) ) ;
#67 = ORIENTED_EDGE ( 'NONE', *, *, #323, .F. ) ;
#68 = CARTESIAN_POINT ( 'NONE',  ( 0.0000000000000000000, 0.0000000000000000000, -1.515625000000000000 ) ) ;
#69 = CARTESIAN_POINT ( 'NONE',  ( 0.3125000000000016653, 7.347880794884120722E-16, -6.000000000000000888 ) ) ;
#70 = ORIENTED_EDGE ( 'NONE', *, *, #175, .F. ) ;
#71 = AXIS2_PLACEMENT_3D ( 'NONE', #177, #288, #142 ) ;
#72 = EDGE_CURVE ( 'NONE', #276, #8, #52, .T. ) ;
#73 = DIRECTION ( 'NONE',  ( 0.0000000000000000000, 0.0000000000000000000, 1.000000000000000000 ) ) ;
#74 = ADVANCED_FACE ( 'NONE', ( #51 ), #347, .T. ) ;
#75 = PRODUCT_DEFINITION_CONTEXT ( 'detailed design', #335, 'design' ) ;
#76 = DIRECTION ( 'NONE',  ( -1.000000000000000000, -0.0000000000000000000, -0.0000000000000000000 ) ) ;
#77 =( LENGTH_UNIT ( ) NAMED_UNIT ( * ) SI_UNIT ( $, .METRE. ) );
#78 = EDGE_LOOP ( 'NONE', ( #283, #252 ) ) ;
#79 = AXIS2_PLACEMENT_3D ( 'NONE', #41, #169, #311 ) ;
#80 = AXIS2_PLACEMENT_3D ( 'NONE', #250, #188, #220 ) ;
#81 =( CONVERSION_BASED_UNIT ( 'INCH', #345 ) LENGTH_UNIT ( ) NAMED_UNIT ( #12 ) );
#82 = EDGE_LOOP ( 'NONE', ( #154, #13 ) ) ;
#83 = CARTESIAN_POINT ( 'NONE',  ( 0.0000000000000000000, 1.856105304957707054E-16, 1.515625000000000000 ) ) ;
#84 = SURFACE_STYLE_USAGE ( .BOTH. , #56 ) ;
#85 = CIRCLE ( 'NONE', #35, 1.515625000000000000 ) ;
#86 = AXIS2_PLACEMENT_3D ( 'NONE', #354, #119, #380 ) ;
#87 = CARTESIAN_POINT ( 'NONE',  ( 9.375000000000000000, 0.0000000000000000000, 0.0000000000000000000 ) ) ;
#88 = CYLINDRICAL_SURFACE ( 'NONE', #320, 6.125000000000000888 ) ;
#89 = CARTESIAN_POINT ( 'NONE',  ( 3.875000000000000444, 2.449293598294705921E-16, -1.999999999999999778 ) ) ;
#90 = AXIS2_PLACEMENT_3D ( 'NONE', #268, #242, #27 ) ;
#91 = CARTESIAN_POINT ( 'NONE',  ( 3.875000000000000444, 0.0000000000000000000, 0.0000000000000000000 ) ) ;
#92 = LENGTH_MEASURE_WITH_UNIT ( LENGTH_MEASURE( 0.02539999999999999897 ), #241 );
#93 = MANIFOLD_SOLID_BREP ( 'Revolve2', #148 ) ;
#94 = EDGE_LOOP ( 'NONE', ( #334, #70 ) ) ;
#95 = AXIS2_PLACEMENT_3D ( 'NONE', #361, #96, #126 ) ;
#96 = DIRECTION ( 'NONE',  ( -1.000000000000000000, -0.0000000000000000000, -0.0000000000000000000 ) ) ;
#97 = PLANE ( 'NONE',  #149 ) ;
#98 = ADVANCED_FACE ( 'NONE', ( #231 ), #203, .F. ) ;
#99 = CARTESIAN_POINT ( 'NONE',  ( 9.375000000000000000, 0.0000000000000000000, 0.0000000000000000000 ) ) ;
#100 = EDGE_LOOP ( 'NONE', ( #229, #31, #38, #230 ) ) ;
#101 = CIRCLE ( 'NONE', #253, 6.125000000000000000 ) ;
#102 = VERTEX_POINT ( 'NONE', #83 ) ;
#103 = ORIENTED_EDGE ( 'NONE', *, *, #349, .T. ) ;
#104 = PRESENTATION_STYLE_ASSIGNMENT (( #228 ) ) ;
#105 = EDGE_LOOP ( 'NONE', ( #11, #215, #120, #330 ) ) ;
#106 =( NAMED_UNIT ( * ) SI_UNIT ( $, .STERADIAN. ) SOLID_ANGLE_UNIT ( ) );
#107 = DIRECTION ( 'NONE',  ( 0.0000000000000000000, 0.0000000000000000000, 1.000000000000000000 ) ) ;
#108 = SHAPE_DEFINITION_REPRESENTATION ( #350, #121 ) ;
#109 = EDGE_CURVE ( 'NONE', #102, #278, #85, .T. ) ;
#110 = DIRECTION ( 'NONE',  ( -0.0000000000000000000, 0.0000000000000000000, 1.000000000000000000 ) ) ;
#111 = LINE ( 'NONE', #237, #204 ) ;
#112 = CARTESIAN_POINT ( 'NONE',  ( 0.0000000000000000000, 0.0000000000000000000, 0.0000000000000000000 ) ) ;
#113 = CIRCLE ( 'NONE', #174, 1.515625000000000000 ) ;
#114 = DIRECTION ( 'NONE',  ( 0.0000000000000000000, 0.0000000000000000000, 1.000000000000000000 ) ) ;
#115 = CARTESIAN_POINT ( 'NONE',  ( 9.375000000000000000, 0.0000000000000000000, 0.0000000000000000000 ) ) ;
#116 = CARTESIAN_POINT ( 'NONE',  ( 3.875000000000001776, 7.347880794884120722E-16, -6.000000000000000888 ) ) ;
#117 = PRODUCT_DEFINITION ( 'UNKNOWN', '', #217, #75 ) ;
#118 = DIRECTION ( 'NONE',  ( -1.000000000000000000, -0.0000000000000000000, -0.0000000000000000000 ) ) ;
#119 = DIRECTION ( 'NONE',  ( 1.000000000000000000, 0.0000000000000000000, 0.0000000000000000000 ) ) ;
#120 = ORIENTED_EDGE ( 'NONE', *, *, #185, .T. ) ;
#121 = ADVANCED_BREP_SHAPE_REPRESENTATION ( 'AC-12', ( #93, #240 ), #58 ) ;
#122 = CARTESIAN_POINT ( 'NONE',  ( 0.0000000000000000000, 0.0000000000000000000, 6.125000000000000888 ) ) ;
#123 = VERTEX_POINT ( 'NONE', #315 ) ;
#124 = AXIS2_PLACEMENT_3D ( 'NONE', #205, #356, #382 ) ;
#125 = ORIENTED_EDGE ( 'NONE', *, *, #211, .F. ) ;
#126 = DIRECTION ( 'NONE',  ( 0.0000000000000000000, 0.0000000000000000000, 1.000000000000000000 ) ) ;
#127 = EDGE_CURVE ( 'NONE', #219, #123, #313, .T. ) ;
#128 = ADVANCED_FACE ( 'NONE', ( #236 ), #88, .T. ) ;
#129 = ORIENTED_EDGE ( 'NONE', *, *, #47, .F. ) ;
#130 = ORIENTED_EDGE ( 'NONE', *, *, #151, .F. ) ;
#131 = AXIS2_PLACEMENT_3D ( 'NONE', #258, #352, #292 ) ;
#132 = FACE_OUTER_BOUND ( 'NONE', #373, .T. ) ;
#133 = FILL_AREA_STYLE_COLOUR ( '', #137 ) ;
#134 = VERTEX_POINT ( 'NONE', #322 ) ;
#135 = ORIENTED_EDGE ( 'NONE', *, *, #158, .T. ) ;
#136 = CARTESIAN_POINT ( 'NONE',  ( 3.875000000000001776, 0.0000000000000000000, 0.0000000000000000000 ) ) ;
#137 = COLOUR_RGB ( '',0.7921568627450980005, 0.8196078431372548767, 0.9333333333333333481 ) ;
#138 = AXIS2_PLACEMENT_3D ( 'NONE', #358, #218, #34 ) ;
#139 = CARTESIAN_POINT ( 'NONE',  ( 0.0000000000000000000, 0.0000000000000000000, 0.0000000000000000000 ) ) ;
#140 = PRODUCT_RELATED_PRODUCT_CATEGORY ( 'part', '', ( #309 ) ) ;
#141 = EDGE_CURVE ( 'NONE', #247, #251, #170, .T. ) ;
#142 = DIRECTION ( 'NONE',  ( 0.0000000000000000000, 0.0000000000000000000, 1.000000000000000000 ) ) ;
#143 = DIRECTION ( 'NONE',  ( -1.000000000000000000, -0.0000000000000000000, -0.0000000000000000000 ) ) ;
#144 = LENGTH_MEASURE_WITH_UNIT ( LENGTH_MEASURE( 0.02539999999999999897 ), #15 );
#145 = CYLINDRICAL_SURFACE ( 'NONE', #279, 1.515625000000000000 ) ;
#146 = DIRECTION ( 'NONE',  ( 0.0000000000000000000, 0.0000000000000000000, -1.000000000000000000 ) ) ;
#147 = DIRECTION ( 'NONE',  ( 1.000000000000000000, -0.0000000000000000000, -0.0000000000000000000 ) ) ;
#148 = CLOSED_SHELL ( 'NONE', ( #128, #98, #74, #173, #270, #61, #376, #295, #26, #183, #3, #200 ) ) ;
#149 = AXIS2_PLACEMENT_3D ( 'NONE', #196, #45, #308 ) ;
#150 = AXIS2_PLACEMENT_3D ( 'NONE', #293, #325, #25 ) ;
#151 = EDGE_CURVE ( 'NONE', #303, #247, #65, .T. ) ;
#152 = ORIENTED_EDGE ( 'NONE', *, *, #151, .T. ) ;
#153 = DIRECTION ( 'NONE',  ( 0.0000000000000000000, 0.0000000000000000000, -1.000000000000000000 ) ) ;
#154 = ORIENTED_EDGE ( 'NONE', *, *, #233, .F. ) ;
#155 = DIMENSIONAL_EXPONENTS ( 1.000000000000000000, 0.0000000000000000000, 0.0000000000000000000, 0.0000000000000000000, 0.0000000000000000000, 0.0000000000000000000, 0.0000000000000000000 ) ;
#156 = DIRECTION ( 'NONE',  ( -1.000000000000000000, -0.0000000000000000000, -0.0000000000000000000 ) ) ;
#157 = AXIS2_PLACEMENT_3D ( 'NONE', #310, #351, #18 ) ;
#158 = EDGE_CURVE ( 'NONE', #8, #276, #222, .T. ) ;
#159 = CIRCLE ( 'NONE', #86, 1.515625000000000000 ) ;
#160 = VERTEX_POINT ( 'NONE', #353 ) ;
#161 = EDGE_CURVE ( 'NONE', #102, #48, #111, .T. ) ;
#162 = CARTESIAN_POINT ( 'NONE',  ( 0.3125000000000016653, 0.0000000000000000000, 0.0000000000000000000 ) ) ;
#163 = CARTESIAN_POINT ( 'NONE',  ( 0.3125000000000016653, 0.0000000000000000000, 0.0000000000000000000 ) ) ;
#164 = EDGE_LOOP ( 'NONE', ( #280, #221 ) ) ;
#165 = UNCERTAINTY_MEASURE_WITH_UNIT (LENGTH_MEASURE( 1.000000000000000082E-05 ), #213, 'distance_accuracy_value', 'NONE');
#166 = ORIENTED_EDGE ( 'NONE', *, *, #291, .F. ) ;
#167 = VECTOR ( 'NONE', #118, 39.37007874015748143 ) ;
#168 = MECHANICAL_DESIGN_GEOMETRIC_PRESENTATION_REPRESENTATION (  '', ( #368 ), #17 ) ;
#169 = DIRECTION ( 'NONE',  ( -1.000000000000000000, -0.0000000000000000000, -0.0000000000000000000 ) ) ;
#170 = LINE ( 'NONE', #289, #244 ) ;
#171 = CARTESIAN_POINT ( 'NONE',  ( 9.375000000000000000, 0.0000000000000000000, -1.515625000000000000 ) ) ;
#172 = CARTESIAN_POINT ( 'NONE',  ( 0.0000000000000000000, 0.0000000000000000000, 0.0000000000000000000 ) ) ;
#173 = ADVANCED_FACE ( 'NONE', ( #282 ), #197, .T. ) ;
#174 = AXIS2_PLACEMENT_3D ( 'NONE', #115, #208, #59 ) ;
#175 = EDGE_CURVE ( 'NONE', #160, #299, #260, .T. ) ;
#176 = AXIS2_PLACEMENT_3D ( 'NONE', #269, #24, #328 ) ;
#177 = CARTESIAN_POINT ( 'NONE',  ( 0.0000000000000000000, 0.0000000000000000000, 0.0000000000000000000 ) ) ;
#178 = DIRECTION ( 'NONE',  ( 0.0000000000000000000, 0.0000000000000000000, 1.000000000000000000 ) ) ;
#179 = APPLICATION_PROTOCOL_DEFINITION ( 'draft international standard', 'automotive_design', 1998, #366 ) ;
#180 = LINE ( 'NONE', #122, #167 ) ;
#181 = LINE ( 'NONE', #297, #360 ) ;
#182 = EDGE_LOOP ( 'NONE', ( #272, #64, #343, #341 ) ) ;
#183 = ADVANCED_FACE ( 'NONE', ( #216 ), #145, .F. ) ;
#184 = ORIENTED_EDGE ( 'NONE', *, *, #291, .T. ) ;
#185 = EDGE_CURVE ( 'NONE', #48, #5, #113, .T. ) ;
#186 = AXIS2_PLACEMENT_3D ( 'NONE', #91, #383, #243 ) ;
#187 = FACE_BOUND ( 'NONE', #210, .T. ) ;
#188 = DIRECTION ( 'NONE',  ( -1.000000000000000000, -0.0000000000000000000, -0.0000000000000000000 ) ) ;
#189 = EDGE_LOOP ( 'NONE', ( #273, #194, #129, #125 ) ) ;
#190 = VECTOR ( 'NONE', #156, 39.37007874015748143 ) ;
#191 = COLOUR_RGB ( '',0.7921568627450980005, 0.8196078431372548767, 0.9333333333333333481 ) ;
#192 = EDGE_LOOP ( 'NONE', ( #257, #152, #14, #166 ) ) ;
#193 = CARTESIAN_POINT ( 'NONE',  ( 0.3125000000000016653, 0.0000000000000000000, 6.000000000000000888 ) ) ;
#194 = ORIENTED_EDGE ( 'NONE', *, *, #227, .T. ) ;
#195 = ORIENTED_EDGE ( 'NONE', *, *, #349, .F. ) ;
#196 = CARTESIAN_POINT ( 'NONE',  ( 0.0000000000000000000, 6.000000000000000888, 0.0000000000000000000 ) ) ;
#197 = CYLINDRICAL_SURFACE ( 'NONE', #131, 6.000000000000000888 ) ;
#198 =( NAMED_UNIT ( * ) SI_UNIT ( $, .STERADIAN. ) SOLID_ANGLE_UNIT ( ) );
#199 = EDGE_LOOP ( 'NONE', ( #67, #130 ) ) ;
#200 = ADVANCED_FACE ( 'NONE', ( #212, #187 ), #326, .F. ) ;
#201 = EDGE_CURVE ( 'NONE', #303, #275, #294, .T. ) ;
#202 = FACE_OUTER_BOUND ( 'NONE', #164, .T. ) ;
#203 = CYLINDRICAL_SURFACE ( 'NONE', #344, 1.515625000000000000 ) ;
#204 = VECTOR ( 'NONE', #22, 39.37007874015748143 ) ;
#205 = CARTESIAN_POINT ( 'NONE',  ( 0.3125000000000016653, 0.0000000000000000000, 0.0000000000000000000 ) ) ;
#206 =( NAMED_UNIT ( * ) PLANE_ANGLE_UNIT ( ) SI_UNIT ( $, .RADIAN. ) );
#207 =( GEOMETRIC_REPRESENTATION_CONTEXT ( 3 ) GLOBAL_UNCERTAINTY_ASSIGNED_CONTEXT ( ( #342 ) ) GLOBAL_UNIT_ASSIGNED_CONTEXT ( ( #81, #263, #106 ) ) REPRESENTATION_CONTEXT ( 'NONE', 'WORKASPACE' ) );
#208 = DIRECTION ( 'NONE',  ( 1.000000000000000000, 0.0000000000000000000, 0.0000000000000000000 ) ) ;
#209 = FACE_OUTER_BOUND ( 'NONE', #224, .T. ) ;
#210 = EDGE_LOOP ( 'NONE', ( #346, #184 ) ) ;
#211 = EDGE_CURVE ( 'NONE', #276, #134, #6, .T. ) ;
#212 = FACE_OUTER_BOUND ( 'NONE', #94, .T. ) ;
#213 =( CONVERSION_BASED_UNIT ( 'INCH', #92 ) LENGTH_UNIT ( ) NAMED_UNIT ( #155 ) );
#214 = EDGE_CURVE ( 'NONE', #299, #123, #180, .T. ) ;
#215 = ORIENTED_EDGE ( 'NONE', *, *, #161, .T. ) ;
#216 = FACE_OUTER_BOUND ( 'NONE', #182, .T. ) ;
#217 = PRODUCT_DEFINITION_FORMATION_WITH_SPECIFIED_SOURCE ( 'ANY', '', #309, .NOT_KNOWN. ) ;
#218 = DIRECTION ( 'NONE',  ( -1.000000000000000000, 0.0000000000000000000, -0.0000000000000000000 ) ) ;
#219 = VERTEX_POINT ( 'NONE', #63 ) ;
#220 = DIRECTION ( 'NONE',  ( 0.0000000000000000000, 0.0000000000000000000, 1.000000000000000000 ) ) ;
#221 = ORIENTED_EDGE ( 'NONE', *, *, #158, .F. ) ;
#222 = CIRCLE ( 'NONE', #300, 2.000000000000000000 ) ;
#223 = VECTOR ( 'NONE', #355, 39.37007874015748143 ) ;
#224 = EDGE_LOOP ( 'NONE', ( #317, #135, #7, #195 ) ) ;
#225 = DIRECTION ( 'NONE',  ( 1.000000000000000000, 0.0000000000000000000, 0.0000000000000000000 ) ) ;
#226 = EDGE_LOOP ( 'NONE', ( #314, #281, #302, #371 ) ) ;
#227 = EDGE_CURVE ( 'NONE', #8, #359, #296, .T. ) ;
#228 = SURFACE_STYLE_USAGE ( .BOTH. , #370 ) ;
#229 = ORIENTED_EDGE ( 'NONE', *, *, #39, .T. ) ;
#230 = ORIENTED_EDGE ( 'NONE', *, *, #214, .F. ) ;
#231 = FACE_OUTER_BOUND ( 'NONE', #105, .T. ) ;
#232 = AXIS2_PLACEMENT_3D ( 'NONE', #163, #306, #37 ) ;
#233 = EDGE_CURVE ( 'NONE', #5, #48, #378, .T. ) ;
#234 = PLANE ( 'NONE',  #23 ) ;
#235 = CARTESIAN_POINT ( 'NONE',  ( 9.375000000000000000, 1.856105304957707054E-16, 1.515625000000000000 ) ) ;
#236 = FACE_OUTER_BOUND ( 'NONE', #100, .T. ) ;
#237 = CARTESIAN_POINT ( 'NONE',  ( 0.0000000000000000000, 1.856105304957707054E-16, 1.515625000000000000 ) ) ;
#238 = DIRECTION ( 'NONE',  ( 1.000000000000000000, 0.0000000000000000000, 0.0000000000000000000 ) ) ;
#239 = AXIS2_PLACEMENT_3D ( 'NONE', #19, #57, #178 ) ;
#240 = AXIS2_PLACEMENT_3D ( 'NONE', #112, #316, #238 ) ;
#241 =( LENGTH_UNIT ( ) NAMED_UNIT ( * ) SI_UNIT ( $, .METRE. ) );
#242 = DIRECTION ( 'NONE',  ( -1.000000000000000000, 0.0000000000000000000, -0.0000000000000000000 ) ) ;
#243 = DIRECTION ( 'NONE',  ( 0.0000000000000000000, 0.0000000000000000000, 1.000000000000000000 ) ) ;
#244 = VECTOR ( 'NONE', #21, 39.37007874015748143 ) ;
#245 = EDGE_CURVE ( 'NONE', #251, #275, #266, .T. ) ;
#246 = ORIENTED_EDGE ( 'NONE', *, *, #214, .T. ) ;
#247 = VERTEX_POINT ( 'NONE', #340 ) ;
#248 = CIRCLE ( 'NONE', #232, 6.000000000000000888 ) ;
#249 = ORIENTED_EDGE ( 'NONE', *, *, #127, .T. ) ;
#250 = CARTESIAN_POINT ( 'NONE',  ( 0.0000000000000000000, 0.0000000000000000000, 0.0000000000000000000 ) ) ;
#251 = VERTEX_POINT ( 'NONE', #193 ) ;
#252 = ORIENTED_EDGE ( 'NONE', *, *, #109, .T. ) ;
#253 = AXIS2_PLACEMENT_3D ( 'NONE', #162, #339, #73 ) ;
#254 = CYLINDRICAL_SURFACE ( 'NONE', #79, 6.125000000000000888 ) ;
#255 = DIRECTION ( 'NONE',  ( 0.0000000000000000000, 0.0000000000000000000, 1.000000000000000000 ) ) ;
#256 =( NAMED_UNIT ( * ) PLANE_ANGLE_UNIT ( ) SI_UNIT ( $, .RADIAN. ) );
#257 = ORIENTED_EDGE ( 'NONE', *, *, #201, .F. ) ;
#258 = CARTESIAN_POINT ( 'NONE',  ( 0.0000000000000000000, 0.0000000000000000000, 0.0000000000000000000 ) ) ;
#259 = SURFACE_STYLE_FILL_AREA ( #20 ) ;
#260 = CIRCLE ( 'NONE', #124, 6.125000000000000000 ) ;
#261 = DIRECTION ( 'NONE',  ( -1.000000000000000000, -0.0000000000000000000, -0.0000000000000000000 ) ) ;
#262 = PRESENTATION_STYLE_ASSIGNMENT (( #84 ) ) ;
#263 =( NAMED_UNIT ( * ) PLANE_ANGLE_UNIT ( ) SI_UNIT ( $, .RADIAN. ) );
#264 = CARTESIAN_POINT ( 'NONE',  ( 9.375000000000000000, 0.0000000000000000000, 0.0000000000000000000 ) ) ;
#265 = CARTESIAN_POINT ( 'NONE',  ( 0.0000000000000000000, 7.500961644777538671E-16, -6.125000000000000888 ) ) ;
#266 = CIRCLE ( 'NONE', #95, 6.000000000000000888 ) ;
#267 =( NAMED_UNIT ( * ) SI_UNIT ( $, .STERADIAN. ) SOLID_ANGLE_UNIT ( ) );
#268 = CARTESIAN_POINT ( 'NONE',  ( 0.3125000000000016653, 6.000000000000000888, 0.0000000000000000000 ) ) ;
#269 = CARTESIAN_POINT ( 'NONE',  ( 3.875000000000001776, 0.0000000000000000000, 0.0000000000000000000 ) ) ;
#270 = ADVANCED_FACE ( 'NONE', ( #364 ), #338, .T. ) ;
#271 = CARTESIAN_POINT ( 'NONE',  ( 0.0000000000000000000, 7.347880794884120722E-16, -6.000000000000000888 ) ) ;
#272 = ORIENTED_EDGE ( 'NONE', *, *, #161, .F. ) ;
#273 = ORIENTED_EDGE ( 'NONE', *, *, #72, .T. ) ;
#274 = DIRECTION ( 'NONE',  ( 1.000000000000000000, -0.0000000000000000000, -0.0000000000000000000 ) ) ;
#275 = VERTEX_POINT ( 'NONE', #69 ) ;
#276 = VERTEX_POINT ( 'NONE', #336 ) ;
#277 = FACE_OUTER_BOUND ( 'NONE', #199, .T. ) ;
#278 = VERTEX_POINT ( 'NONE', #68 ) ;
#279 = AXIS2_PLACEMENT_3D ( 'NONE', #298, #274, #146 ) ;
#280 = ORIENTED_EDGE ( 'NONE', *, *, #72, .F. ) ;
#281 = ORIENTED_EDGE ( 'NONE', *, *, #201, .T. ) ;
#282 = FACE_OUTER_BOUND ( 'NONE', #226, .T. ) ;
#283 = ORIENTED_EDGE ( 'NONE', *, *, #362, .T. ) ;
#284 = DIRECTION ( 'NONE',  ( 1.000000000000000000, -0.0000000000000000000, -0.0000000000000000000 ) ) ;
#285 = FILL_AREA_STYLE_COLOUR ( '', #191 ) ;
#286 = CIRCLE ( 'NONE', #157, 1.999999999999999778 ) ;
#287 = DIRECTION ( 'NONE',  ( 0.0000000000000000000, 0.0000000000000000000, -1.000000000000000000 ) ) ;
#288 = DIRECTION ( 'NONE',  ( -1.000000000000000000, -0.0000000000000000000, -0.0000000000000000000 ) ) ;
#289 = CARTESIAN_POINT ( 'NONE',  ( 0.0000000000000000000, 0.0000000000000000000, 6.000000000000000888 ) ) ;
#290 = APPLICATION_PROTOCOL_DEFINITION ( 'draft international standard', 'automotive_design', 1998, #335 ) ;
#291 = EDGE_CURVE ( 'NONE', #275, #251, #248, .T. ) ;
#292 = DIRECTION ( 'NONE',  ( 0.0000000000000000000, 0.0000000000000000000, 1.000000000000000000 ) ) ;
#293 = CARTESIAN_POINT ( 'NONE',  ( 0.0000000000000000000, 0.0000000000000000000, 0.0000000000000000000 ) ) ;
#294 = LINE ( 'NONE', #271, #305 ) ;
#295 = ADVANCED_FACE ( 'NONE', ( #277, #40 ), #304, .F. ) ;
#296 = LINE ( 'NONE', #324, #190 ) ;
#297 = CARTESIAN_POINT ( 'NONE',  ( 0.0000000000000000000, 0.0000000000000000000, -1.515625000000000000 ) ) ;
#298 = CARTESIAN_POINT ( 'NONE',  ( 0.0000000000000000000, 0.0000000000000000000, 0.0000000000000000000 ) ) ;
#299 = VERTEX_POINT ( 'NONE', #333 ) ;
#300 = AXIS2_PLACEMENT_3D ( 'NONE', #264, #261, #377 ) ;
#301 = PRESENTATION_LAYER_ASSIGNMENT (  '', '', ( #368 ) ) ;
#302 = ORIENTED_EDGE ( 'NONE', *, *, #245, .F. ) ;
#303 = VERTEX_POINT ( 'NONE', #116 ) ;
#304 = PLANE ( 'NONE',  #138 ) ;
#305 = VECTOR ( 'NONE', #331, 39.37007874015748143 ) ;
#306 = DIRECTION ( 'NONE',  ( -1.000000000000000000, -0.0000000000000000000, -0.0000000000000000000 ) ) ;
#307 = EDGE_CURVE ( 'NONE', #160, #219, #381, .T. ) ;
#308 = DIRECTION ( 'NONE',  ( 0.0000000000000000000, 0.0000000000000000000, -1.000000000000000000 ) ) ;
#309 = PRODUCT ( 'AC-12', 'AC-12', '', ( #50 ) ) ;
#310 = CARTESIAN_POINT ( 'NONE',  ( 3.875000000000000444, 0.0000000000000000000, 0.0000000000000000000 ) ) ;
#311 = DIRECTION ( 'NONE',  ( 0.0000000000000000000, 0.0000000000000000000, 1.000000000000000000 ) ) ;
#312 = AXIS2_PLACEMENT_3D ( 'NONE', #369, #76, #255 ) ;
#313 = CIRCLE ( 'NONE', #239, 6.125000000000000888 ) ;
#314 = ORIENTED_EDGE ( 'NONE', *, *, #323, .T. ) ;
#315 = CARTESIAN_POINT ( 'NONE',  ( 0.0000000000000000000, 0.0000000000000000000, 6.125000000000000888 ) ) ;
#316 = DIRECTION ( 'NONE',  ( 0.0000000000000000000, 0.0000000000000000000, 1.000000000000000000 ) ) ;
#317 = ORIENTED_EDGE ( 'NONE', *, *, #227, .F. ) ;
#318 = DIRECTION ( 'NONE',  ( 0.0000000000000000000, 0.0000000000000000000, -1.000000000000000000 ) ) ;
#319 = CARTESIAN_POINT ( 'NONE',  ( 9.375000000000000000, 0.0000000000000000000, 0.0000000000000000000 ) ) ;
#320 = AXIS2_PLACEMENT_3D ( 'NONE', #379, #46, #49 ) ;
#321 = FACE_BOUND ( 'NONE', #82, .T. ) ;
#322 = CARTESIAN_POINT ( 'NONE',  ( 3.875000000000000444, 0.0000000000000000000, 1.999999999999999778 ) ) ;
#323 = EDGE_CURVE ( 'NONE', #247, #303, #53, .T. ) ;
#324 = CARTESIAN_POINT ( 'NONE',  ( 0.0000000000000000000, 2.449293598294706414E-16, -2.000000000000000000 ) ) ;
#325 = DIRECTION ( 'NONE',  ( -1.000000000000000000, -0.0000000000000000000, -0.0000000000000000000 ) ) ;
#326 = PLANE ( 'NONE',  #90 ) ;
#327 = CIRCLE ( 'NONE', #312, 6.125000000000000888 ) ;
#328 = DIRECTION ( 'NONE',  ( 0.0000000000000000000, 0.0000000000000000000, 1.000000000000000000 ) ) ;
#329 = DIRECTION ( 'NONE',  ( -1.000000000000000000, -0.0000000000000000000, -0.0000000000000000000 ) ) ;
#330 = ORIENTED_EDGE ( 'NONE', *, *, #357, .F. ) ;
#331 = DIRECTION ( 'NONE',  ( -1.000000000000000000, -0.0000000000000000000, -0.0000000000000000000 ) ) ;
#332 = VECTOR ( 'NONE', #329, 39.37007874015748143 ) ;
#333 = CARTESIAN_POINT ( 'NONE',  ( 0.3125000000000016653, 0.0000000000000000000, 6.125000000000000000 ) ) ;
#334 = ORIENTED_EDGE ( 'NONE', *, *, #39, .F. ) ;
#335 = APPLICATION_CONTEXT ( 'automotive_design' ) ;
#336 = CARTESIAN_POINT ( 'NONE',  ( 9.375000000000000000, 0.0000000000000000000, 2.000000000000000000 ) ) ;
#337 = ORIENTED_EDGE ( 'NONE', *, *, #47, .T. ) ;
#338 = CYLINDRICAL_SURFACE ( 'NONE', #80, 6.000000000000000888 ) ;
#339 = DIRECTION ( 'NONE',  ( -1.000000000000000000, -0.0000000000000000000, -0.0000000000000000000 ) ) ;
#340 = CARTESIAN_POINT ( 'NONE',  ( 3.875000000000001776, 0.0000000000000000000, 6.000000000000000888 ) ) ;
#341 = ORIENTED_EDGE ( 'NONE', *, *, #233, .T. ) ;
#342 = UNCERTAINTY_MEASURE_WITH_UNIT (LENGTH_MEASURE( 1.000000000000000082E-05 ), #81, 'distance_accuracy_value', 'NONE');
#343 = ORIENTED_EDGE ( 'NONE', *, *, #357, .T. ) ;
#344 = AXIS2_PLACEMENT_3D ( 'NONE', #172, #284, #318 ) ;
#345 = LENGTH_MEASURE_WITH_UNIT ( LENGTH_MEASURE( 0.02539999999999999897 ), #77 );
#346 = ORIENTED_EDGE ( 'NONE', *, *, #245, .T. ) ;
#347 = CYLINDRICAL_SURFACE ( 'NONE', #71, 2.000000000000000000 ) ;
#348 =( CONVERSION_BASED_UNIT ( 'INCH', #144 ) LENGTH_UNIT ( ) NAMED_UNIT ( #33 ) );
#349 = EDGE_CURVE ( 'NONE', #359, #134, #2, .T. ) ;
#350 = PRODUCT_DEFINITION_SHAPE ( 'NONE', 'NONE',  #117 ) ;
#351 = DIRECTION ( 'NONE',  ( -1.000000000000000000, -0.0000000000000000000, -0.0000000000000000000 ) ) ;
#352 = DIRECTION ( 'NONE',  ( -1.000000000000000000, -0.0000000000000000000, -0.0000000000000000000 ) ) ;
#353 = CARTESIAN_POINT ( 'NONE',  ( 0.3125000000000016653, 7.500961644777537685E-16, -6.125000000000000000 ) ) ;
#354 = CARTESIAN_POINT ( 'NONE',  ( 0.0000000000000000000, 0.0000000000000000000, 0.0000000000000000000 ) ) ;
#355 = DIRECTION ( 'NONE',  ( -1.000000000000000000, -0.0000000000000000000, -0.0000000000000000000 ) ) ;
#356 = DIRECTION ( 'NONE',  ( -1.000000000000000000, -0.0000000000000000000, -0.0000000000000000000 ) ) ;
#357 = EDGE_CURVE ( 'NONE', #278, #5, #181, .T. ) ;
#358 = CARTESIAN_POINT ( 'NONE',  ( 3.875000000000001332, 1.999999999999999778, 0.0000000000000000000 ) ) ;
#359 = VERTEX_POINT ( 'NONE', #89 ) ;
#360 = VECTOR ( 'NONE', #147, 39.37007874015748143 ) ;
#361 = CARTESIAN_POINT ( 'NONE',  ( 0.3125000000000016653, 0.0000000000000000000, 0.0000000000000000000 ) ) ;
#362 = EDGE_CURVE ( 'NONE', #278, #102, #159, .T. ) ;
#363 = FACE_OUTER_BOUND ( 'NONE', #62, .T. ) ;
#364 = FACE_OUTER_BOUND ( 'NONE', #192, .T. ) ;
#365 = FACE_BOUND ( 'NONE', #78, .T. ) ;
#366 = APPLICATION_CONTEXT ( 'automotive_design' ) ;
#367 = AXIS2_PLACEMENT_3D ( 'NONE', #136, #143, #114 ) ;
#368 = STYLED_ITEM ( 'NONE', ( #262 ), #121 ) ;
#369 = CARTESIAN_POINT ( 'NONE',  ( 0.0000000000000000000, 0.0000000000000000000, 0.0000000000000000000 ) ) ;
#370 = SURFACE_SIDE_STYLE ('',( #372 ) ) ;
#371 = ORIENTED_EDGE ( 'NONE', *, *, #141, .F. ) ;
#372 = SURFACE_STYLE_FILL_AREA ( #43 ) ;
#373 = EDGE_LOOP ( 'NONE', ( #9, #32, #246, #10 ) ) ;
#374 = AXIS2_PLACEMENT_3D ( 'NONE', #87, #375, #107 ) ;
#375 = DIRECTION ( 'NONE',  ( -1.000000000000000000, -0.0000000000000000000, -0.0000000000000000000 ) ) ;
#376 = ADVANCED_FACE ( 'NONE', ( #209 ), #60, .T. ) ;
#377 = DIRECTION ( 'NONE',  ( 0.0000000000000000000, 0.0000000000000000000, 1.000000000000000000 ) ) ;
#378 = CIRCLE ( 'NONE', #42, 1.515625000000000000 ) ;
#379 = CARTESIAN_POINT ( 'NONE',  ( 0.0000000000000000000, 0.0000000000000000000, 0.0000000000000000000 ) ) ;
#380 = DIRECTION ( 'NONE',  ( 0.0000000000000000000, 0.0000000000000000000, -1.000000000000000000 ) ) ;
#381 = LINE ( 'NONE', #265, #223 ) ;
#382 = DIRECTION ( 'NONE',  ( 0.0000000000000000000, 0.0000000000000000000, 1.000000000000000000 ) ) ;
#383 = DIRECTION ( 'NONE',  ( -1.000000000000000000, -0.0000000000000000000, -0.0000000000000000000 ) ) ;
ENDSEC;
END-ISO-10303-21;
