ISO-10303-21;
HEADER;
FILE_DESCRIPTION (( 'STEP AP214' ),
    '1' );
FILE_NAME ('AC-10.STEP',
    '2020-10-26T23:44:28',
    ( '' ),
    ( '' ),
    'SwSTEP 2.0',
    'SolidWorks 2019',
    '' );
FILE_SCHEMA (( 'AUTOMOTIVE_DESIGN' ));
ENDSEC;

DATA;
#1 = DIRECTION ( 'NONE',  ( -0.0000000000000000000, 0.0000000000000000000, 1.000000000000000000 ) ) ;
#2 = CARTESIAN_POINT ( 'NONE',  ( 0.0000000000000000000, 0.0000000000000000000, 0.0000000000000000000 ) ) ;
#3 = ADVANCED_FACE ( 'NONE', ( #234 ), #237, .T. ) ;
#4 = FACE_OUTER_BOUND ( 'NONE', #83, .T. ) ;
#5 = CIRCLE ( 'NONE', #364, 1.515625000000000000 ) ;
#6 = DIRECTION ( 'NONE',  ( -1.000000000000000000, -0.0000000000000000000, -0.0000000000000000000 ) ) ;
#7 = CARTESIAN_POINT ( 'NONE',  ( 0.0000000000000000000, 0.0000000000000000000, 0.0000000000000000000 ) ) ;
#8 = CARTESIAN_POINT ( 'NONE',  ( 9.375000000000000000, 2.449293598294706414E-16, -2.000000000000000000 ) ) ;
#9 = DIRECTION ( 'NONE',  ( 0.0000000000000000000, 0.0000000000000000000, 1.000000000000000000 ) ) ;
#10 = FACE_BOUND ( 'NONE', #335, .T. ) ;
#11 = CIRCLE ( 'NONE', #195, 1.515625000000000000 ) ;
#12 = ORIENTED_EDGE ( 'NONE', *, *, #114, .T. ) ;
#13 = EDGE_CURVE ( 'NONE', #98, #28, #5, .T. ) ;
#14 = DIRECTION ( 'NONE',  ( 1.000000000000000000, -0.0000000000000000000, -0.0000000000000000000 ) ) ;
#15 = LINE ( 'NONE', #191, #380 ) ;
#16 = ORIENTED_EDGE ( 'NONE', *, *, #256, .T. ) ;
#17 = ADVANCED_FACE ( 'NONE', ( #181 ), #203, .T. ) ;
#18 = CARTESIAN_POINT ( 'NONE',  ( 0.0000000000000000000, 0.0000000000000000000, -1.515625000000000000 ) ) ;
#19 = AXIS2_PLACEMENT_3D ( 'NONE', #94, #92, #213 ) ;
#20 =( CONVERSION_BASED_UNIT ( 'INCH', #277 ) LENGTH_UNIT ( ) NAMED_UNIT ( #142 ) );
#21 = PRODUCT_DEFINITION_SHAPE ( 'NONE', 'NONE',  #276 ) ;
#22 = EDGE_LOOP ( 'NONE', ( #168, #53 ) ) ;
#23 = ADVANCED_FACE ( 'NONE', ( #267 ), #265, .T. ) ;
#24 = VERTEX_POINT ( 'NONE', #383 ) ;
#25 = CIRCLE ( 'NONE', #220, 1.999999999999999778 ) ;
#26 =( NAMED_UNIT ( * ) SI_UNIT ( $, .STERADIAN. ) SOLID_ANGLE_UNIT ( ) );
#27 = VERTEX_POINT ( 'NONE', #235 ) ;
#28 = VERTEX_POINT ( 'NONE', #85 ) ;
#29 = APPLICATION_CONTEXT ( 'automotive_design' ) ;
#30 = PRODUCT_DEFINITION_CONTEXT ( 'detailed design', #29, 'design' ) ;
#31 = AXIS2_PLACEMENT_3D ( 'NONE', #307, #188, #47 ) ;
#32 = DIRECTION ( 'NONE',  ( 0.0000000000000000000, 0.0000000000000000000, 1.000000000000000000 ) ) ;
#33 = DIRECTION ( 'NONE',  ( 0.0000000000000000000, 0.0000000000000000000, -1.000000000000000000 ) ) ;
#34 = DIRECTION ( 'NONE',  ( -1.000000000000000000, -0.0000000000000000000, -0.0000000000000000000 ) ) ;
#35 = PLANE ( 'NONE',  #291 ) ;
#36 = ORIENTED_EDGE ( 'NONE', *, *, #150, .T. ) ;
#37 = DIRECTION ( 'NONE',  ( -1.000000000000000000, 0.0000000000000000000, -0.0000000000000000000 ) ) ;
#38 = VECTOR ( 'NONE', #72, 39.37007874015748143 ) ;
#39 = ORIENTED_EDGE ( 'NONE', *, *, #68, .F. ) ;
#40 = FACE_BOUND ( 'NONE', #288, .T. ) ;
#41 = CARTESIAN_POINT ( 'NONE',  ( 9.375000000000000000, 0.0000000000000000000, 0.0000000000000000000 ) ) ;
#42 = EDGE_CURVE ( 'NONE', #200, #129, #179, .T. ) ;
#43 = LENGTH_MEASURE_WITH_UNIT ( LENGTH_MEASURE( 0.02539999999999999897 ), #151 );
#44 = CARTESIAN_POINT ( 'NONE',  ( 0.0000000000000000000, 0.0000000000000000000, 5.000000000000000000 ) ) ;
#45 = ORIENTED_EDGE ( 'NONE', *, *, #170, .F. ) ;
#46 = CARTESIAN_POINT ( 'NONE',  ( 0.3125000000000005551, 0.0000000000000000000, 0.0000000000000000000 ) ) ;
#47 = DIRECTION ( 'NONE',  ( 0.0000000000000000000, 0.0000000000000000000, -1.000000000000000000 ) ) ;
#48 = EDGE_CURVE ( 'NONE', #184, #103, #297, .T. ) ;
#49 = CARTESIAN_POINT ( 'NONE',  ( 0.3125000000000005551, 6.123233995736766282E-16, -5.000000000000000000 ) ) ;
#50 = AXIS2_PLACEMENT_3D ( 'NONE', #310, #334, #221 ) ;
#51 = EDGE_CURVE ( 'NONE', #24, #137, #25, .T. ) ;
#52 = EDGE_LOOP ( 'NONE', ( #111, #115, #350, #254 ) ) ;
#53 = ORIENTED_EDGE ( 'NONE', *, *, #42, .F. ) ;
#54 = AXIS2_PLACEMENT_3D ( 'NONE', #154, #329, #299 ) ;
#55 = VERTEX_POINT ( 'NONE', #178 ) ;
#56 = ORIENTED_EDGE ( 'NONE', *, *, #42, .T. ) ;
#57 = DIRECTION ( 'NONE',  ( 0.0000000000000000000, 0.0000000000000000000, -1.000000000000000000 ) ) ;
#58 = CARTESIAN_POINT ( 'NONE',  ( 3.875000000000000444, 0.0000000000000000000, 0.0000000000000000000 ) ) ;
#59 = CIRCLE ( 'NONE', #274, 1.515625000000000000 ) ;
#60 =( GEOMETRIC_REPRESENTATION_CONTEXT ( 3 ) GLOBAL_UNCERTAINTY_ASSIGNED_CONTEXT ( ( #324 ) ) GLOBAL_UNIT_ASSIGNED_CONTEXT ( ( #122, #194, #26 ) ) REPRESENTATION_CONTEXT ( 'NONE', 'WORKASPACE' ) );
#61 = DIRECTION ( 'NONE',  ( 0.0000000000000000000, 0.0000000000000000000, 1.000000000000000000 ) ) ;
#62 = ADVANCED_FACE ( 'NONE', ( #119 ), #204, .T. ) ;
#63 = SURFACE_STYLE_USAGE ( .BOTH. , #236 ) ;
#64 = CARTESIAN_POINT ( 'NONE',  ( 9.375000000000000000, 0.0000000000000000000, 0.0000000000000000000 ) ) ;
#65 = CARTESIAN_POINT ( 'NONE',  ( 0.0000000000000000000, 0.0000000000000000000, -1.515625000000000000 ) ) ;
#66 = VECTOR ( 'NONE', #14, 39.37007874015748143 ) ;
#67 = DIRECTION ( 'NONE',  ( -1.000000000000000000, -0.0000000000000000000, -0.0000000000000000000 ) ) ;
#68 = EDGE_CURVE ( 'NONE', #261, #24, #210, .T. ) ;
#69 = CARTESIAN_POINT ( 'NONE',  ( 0.0000000000000000000, 0.0000000000000000000, 5.125000000000001776 ) ) ;
#70 = EDGE_LOOP ( 'NONE', ( #95, #133 ) ) ;
#71 = LINE ( 'NONE', #186, #370 ) ;
#72 = DIRECTION ( 'NONE',  ( -1.000000000000000000, -0.0000000000000000000, -0.0000000000000000000 ) ) ;
#73 = DIRECTION ( 'NONE',  ( 0.0000000000000000000, 0.0000000000000000000, 1.000000000000000000 ) ) ;
#74 = FACE_OUTER_BOUND ( 'NONE', #125, .T. ) ;
#75 = DIRECTION ( 'NONE',  ( -0.0000000000000000000, 0.0000000000000000000, 1.000000000000000000 ) ) ;
#76 = PRODUCT ( 'AC-10', 'AC-10', '', ( #255 ) ) ;
#77 = AXIS2_PLACEMENT_3D ( 'NONE', #308, #244, #75 ) ;
#78 = EDGE_CURVE ( 'NONE', #252, #261, #140, .T. ) ;
#79 = ORIENTED_EDGE ( 'NONE', *, *, #51, .F. ) ;
#80 = ADVANCED_FACE ( 'NONE', ( #40, #330 ), #259, .F. ) ;
#81 = DIRECTION ( 'NONE',  ( 1.000000000000000000, 0.0000000000000000000, 0.0000000000000000000 ) ) ;
#82 = DIMENSIONAL_EXPONENTS ( 1.000000000000000000, 0.0000000000000000000, 0.0000000000000000000, 0.0000000000000000000, 0.0000000000000000000, 0.0000000000000000000, 0.0000000000000000000 ) ;
#83 = EDGE_LOOP ( 'NONE', ( #216, #232, #284, #192 ) ) ;
#84 = DIRECTION ( 'NONE',  ( 0.0000000000000000000, 0.0000000000000000000, 1.000000000000000000 ) ) ;
#85 = CARTESIAN_POINT ( 'NONE',  ( 9.375000000000000000, 1.856105304957707054E-16, 1.515625000000000000 ) ) ;
#86 = CARTESIAN_POINT ( 'NONE',  ( 0.0000000000000000000, 0.0000000000000000000, 0.0000000000000000000 ) ) ;
#87 = DIRECTION ( 'NONE',  ( -1.000000000000000000, -0.0000000000000000000, -0.0000000000000000000 ) ) ;
#88 = UNCERTAINTY_MEASURE_WITH_UNIT (LENGTH_MEASURE( 1.000000000000000082E-05 ), #96, 'distance_accuracy_value', 'NONE');
#89 = DIRECTION ( 'NONE',  ( -1.000000000000000000, -0.0000000000000000000, -0.0000000000000000000 ) ) ;
#90 = EDGE_CURVE ( 'NONE', #200, #354, #175, .T. ) ;
#91 = AXIS2_PLACEMENT_3D ( 'NONE', #240, #89, #263 ) ;
#92 = DIRECTION ( 'NONE',  ( -1.000000000000000000, 0.0000000000000000000, -0.0000000000000000000 ) ) ;
#93 = FILL_AREA_STYLE_COLOUR ( '', #349 ) ;
#94 = CARTESIAN_POINT ( 'NONE',  ( 3.875000000000000444, 1.999999999999999778, 0.0000000000000000000 ) ) ;
#95 = ORIENTED_EDGE ( 'NONE', *, *, #78, .F. ) ;
#96 =( CONVERSION_BASED_UNIT ( 'INCH', #43 ) LENGTH_UNIT ( ) NAMED_UNIT ( #82 ) );
#97 = FACE_OUTER_BOUND ( 'NONE', #70, .T. ) ;
#98 = VERTEX_POINT ( 'NONE', #117 ) ;
#99 = CARTESIAN_POINT ( 'NONE',  ( 0.0000000000000000000, 0.0000000000000000000, 0.0000000000000000000 ) ) ;
#100 = DIRECTION ( 'NONE',  ( -1.000000000000000000, -0.0000000000000000000, -0.0000000000000000000 ) ) ;
#101 = DIRECTION ( 'NONE',  ( 0.0000000000000000000, 0.0000000000000000000, -1.000000000000000000 ) ) ;
#102 = CYLINDRICAL_SURFACE ( 'NONE', #54, 5.125000000000001776 ) ;
#103 = VERTEX_POINT ( 'NONE', #49 ) ;
#104 = EDGE_CURVE ( 'NONE', #129, #189, #71, .T. ) ;
#105 = EDGE_LOOP ( 'NONE', ( #231, #171, #352, #197 ) ) ;
#106 = CIRCLE ( 'NONE', #298, 5.125000000000001776 ) ;
#107 = AXIS2_PLACEMENT_3D ( 'NONE', #165, #375, #81 ) ;
#108 = EDGE_LOOP ( 'NONE', ( #315, #286 ) ) ;
#109 = EDGE_CURVE ( 'NONE', #225, #28, #272, .T. ) ;
#110 = ORIENTED_EDGE ( 'NONE', *, *, #68, .T. ) ;
#111 = ORIENTED_EDGE ( 'NONE', *, *, #48, .F. ) ;
#112 = AXIS2_PLACEMENT_3D ( 'NONE', #7, #360, #328 ) ;
#113 = CARTESIAN_POINT ( 'NONE',  ( 0.0000000000000000000, 5.000000000000000000, 0.0000000000000000000 ) ) ;
#114 = EDGE_CURVE ( 'NONE', #261, #252, #331, .T. ) ;
#115 = ORIENTED_EDGE ( 'NONE', *, *, #347, .T. ) ;
#116 = SURFACE_STYLE_FILL_AREA ( #262 ) ;
#117 = CARTESIAN_POINT ( 'NONE',  ( 9.375000000000000000, 0.0000000000000000000, -1.515625000000000000 ) ) ;
#118 = CARTESIAN_POINT ( 'NONE',  ( 0.0000000000000000000, 6.123233995736766282E-16, -5.000000000000000000 ) ) ;
#119 = FACE_OUTER_BOUND ( 'NONE', #162, .T. ) ;
#120 = ADVANCED_FACE ( 'NONE', ( #155, #97 ), #121, .F. ) ;
#121 = PLANE ( 'NONE',  #77 ) ;
#122 =( CONVERSION_BASED_UNIT ( 'INCH', #271 ) LENGTH_UNIT ( ) NAMED_UNIT ( #319 ) );
#123 = AXIS2_PLACEMENT_3D ( 'NONE', #41, #193, #9 ) ;
#124 = AXIS2_PLACEMENT_3D ( 'NONE', #46, #160, #219 ) ;
#125 = EDGE_LOOP ( 'NONE', ( #366, #56, #214, #139 ) ) ;
#126 = EDGE_CURVE ( 'NONE', #252, #137, #15, .T. ) ;
#127 = CARTESIAN_POINT ( 'NONE',  ( 0.3125000000000005551, 0.0000000000000000000, 5.125000000000001776 ) ) ;
#128 = FACE_OUTER_BOUND ( 'NONE', #283, .T. ) ;
#129 = VERTEX_POINT ( 'NONE', #127 ) ;
#130 = APPLICATION_PROTOCOL_DEFINITION ( 'draft international standard', 'automotive_design', 1998, #167 ) ;
#131 = CARTESIAN_POINT ( 'NONE',  ( 3.875000000000000444, 0.0000000000000000000, 0.0000000000000000000 ) ) ;
#132 = STYLED_ITEM ( 'NONE', ( #176 ), #343 ) ;
#133 = ORIENTED_EDGE ( 'NONE', *, *, #114, .F. ) ;
#134 = DIRECTION ( 'NONE',  ( -1.000000000000000000, -0.0000000000000000000, -0.0000000000000000000 ) ) ;
#135 = CIRCLE ( 'NONE', #50, 5.125000000000001776 ) ;
#136 = EDGE_CURVE ( 'NONE', #55, #184, #246, .T. ) ;
#137 = VERTEX_POINT ( 'NONE', #275 ) ;
#138 = SHAPE_DEFINITION_REPRESENTATION ( #21, #198 ) ;
#139 = ORIENTED_EDGE ( 'NONE', *, *, #313, .F. ) ;
#140 = CIRCLE ( 'NONE', #201, 2.000000000000000000 ) ;
#141 = AXIS2_PLACEMENT_3D ( 'NONE', #99, #333, #101 ) ;
#142 = DIMENSIONAL_EXPONENTS ( 1.000000000000000000, 0.0000000000000000000, 0.0000000000000000000, 0.0000000000000000000, 0.0000000000000000000, 0.0000000000000000000, 0.0000000000000000000 ) ;
#143 = ORIENTED_EDGE ( 'NONE', *, *, #222, .F. ) ;
#144 = ADVANCED_FACE ( 'NONE', ( #224, #10 ), #363, .F. ) ;
#145 = CARTESIAN_POINT ( 'NONE',  ( 3.875000000000000444, 0.0000000000000000000, 0.0000000000000000000 ) ) ;
#146 = DIRECTION ( 'NONE',  ( 0.0000000000000000000, 0.0000000000000000000, 1.000000000000000000 ) ) ;
#147 = CARTESIAN_POINT ( 'NONE',  ( 0.0000000000000000000, 0.0000000000000000000, 0.0000000000000000000 ) ) ;
#148 = DIRECTION ( 'NONE',  ( 0.0000000000000000000, 0.0000000000000000000, -1.000000000000000000 ) ) ;
#149 = CIRCLE ( 'NONE', #238, 1.999999999999999778 ) ;
#150 = EDGE_CURVE ( 'NONE', #189, #354, #172, .T. ) ;
#151 =( LENGTH_UNIT ( ) NAMED_UNIT ( * ) SI_UNIT ( $, .METRE. ) );
#152 = CARTESIAN_POINT ( 'NONE',  ( 0.0000000000000000000, 2.449293598294706414E-16, -2.000000000000000000 ) ) ;
#153 = CARTESIAN_POINT ( 'NONE',  ( 0.0000000000000000000, 0.0000000000000000000, 0.0000000000000000000 ) ) ;
#154 = CARTESIAN_POINT ( 'NONE',  ( 0.0000000000000000000, 0.0000000000000000000, 0.0000000000000000000 ) ) ;
#155 = FACE_BOUND ( 'NONE', #156, .T. ) ;
#156 = EDGE_LOOP ( 'NONE', ( #281, #45 ) ) ;
#157 = AXIS2_PLACEMENT_3D ( 'NONE', #320, #174, #33 ) ;
#158 = CIRCLE ( 'NONE', #212, 5.000000000000000000 ) ;
#159 = CARTESIAN_POINT ( 'NONE',  ( 0.0000000000000000000, 1.856105304957707054E-16, 1.515625000000000000 ) ) ;
#160 = DIRECTION ( 'NONE',  ( -1.000000000000000000, -0.0000000000000000000, -0.0000000000000000000 ) ) ;
#161 = DIRECTION ( 'NONE',  ( 0.0000000000000000000, 0.0000000000000000000, -1.000000000000000000 ) ) ;
#162 = EDGE_LOOP ( 'NONE', ( #338, #373, #257, #273 ) ) ;
#163 = EDGE_CURVE ( 'NONE', #129, #200, #135, .T. ) ;
#164 = AXIS2_PLACEMENT_3D ( 'NONE', #86, #326, #146 ) ;
#165 = CARTESIAN_POINT ( 'NONE',  ( 0.0000000000000000000, 0.0000000000000000000, 0.0000000000000000000 ) ) ;
#166 = COLOUR_RGB ( '',0.7921568627450980005, 0.8196078431372548767, 0.9333333333333333481 ) ;
#167 = APPLICATION_CONTEXT ( 'automotive_design' ) ;
#168 = ORIENTED_EDGE ( 'NONE', *, *, #163, .F. ) ;
#169 = ORIENTED_EDGE ( 'NONE', *, *, #361, .T. ) ;
#170 = EDGE_CURVE ( 'NONE', #28, #98, #11, .T. ) ;
#171 = ORIENTED_EDGE ( 'NONE', *, *, #48, .T. ) ;
#172 = CIRCLE ( 'NONE', #211, 5.125000000000001776 ) ;
#173 = PRESENTATION_LAYER_ASSIGNMENT (  '', '', ( #196 ) ) ;
#174 = DIRECTION ( 'NONE',  ( 1.000000000000000000, -0.0000000000000000000, -0.0000000000000000000 ) ) ;
#175 = LINE ( 'NONE', #294, #205 ) ;
#176 = PRESENTATION_STYLE_ASSIGNMENT (( #63 ) ) ;
#177 = DIRECTION ( 'NONE',  ( 1.000000000000000000, 0.0000000000000000000, 0.0000000000000000000 ) ) ;
#178 = CARTESIAN_POINT ( 'NONE',  ( 3.875000000000000444, 0.0000000000000000000, 5.000000000000000000 ) ) ;
#179 = CIRCLE ( 'NONE', #314, 5.125000000000001776 ) ;
#180 = CARTESIAN_POINT ( 'NONE',  ( 0.3125000000000005551, 0.0000000000000000000, 0.0000000000000000000 ) ) ;
#181 = FACE_OUTER_BOUND ( 'NONE', #105, .T. ) ;
#182 = FACE_OUTER_BOUND ( 'NONE', #355, .T. ) ;
#183 = DIRECTION ( 'NONE',  ( -1.000000000000000000, -0.0000000000000000000, -0.0000000000000000000 ) ) ;
#184 = VERTEX_POINT ( 'NONE', #218 ) ;
#185 = CYLINDRICAL_SURFACE ( 'NONE', #141, 1.515625000000000000 ) ;
#186 = CARTESIAN_POINT ( 'NONE',  ( 0.0000000000000000000, 0.0000000000000000000, 5.125000000000001776 ) ) ;
#187 =( NAMED_UNIT ( * ) SI_UNIT ( $, .STERADIAN. ) SOLID_ANGLE_UNIT ( ) );
#188 = DIRECTION ( 'NONE',  ( 1.000000000000000000, 0.0000000000000000000, 0.0000000000000000000 ) ) ;
#189 = VERTEX_POINT ( 'NONE', #69 ) ;
#190 =( NAMED_UNIT ( * ) PLANE_ANGLE_UNIT ( ) SI_UNIT ( $, .RADIAN. ) );
#191 = CARTESIAN_POINT ( 'NONE',  ( 0.0000000000000000000, 0.0000000000000000000, 2.000000000000000000 ) ) ;
#192 = ORIENTED_EDGE ( 'NONE', *, *, #256, .F. ) ;
#193 = DIRECTION ( 'NONE',  ( -1.000000000000000000, -0.0000000000000000000, -0.0000000000000000000 ) ) ;
#194 =( NAMED_UNIT ( * ) PLANE_ANGLE_UNIT ( ) SI_UNIT ( $, .RADIAN. ) );
#195 = AXIS2_PLACEMENT_3D ( 'NONE', #345, #302, #161 ) ;
#196 = STYLED_ITEM ( 'NONE', ( #339 ), #198 ) ;
#197 = ORIENTED_EDGE ( 'NONE', *, *, #202, .F. ) ;
#198 = ADVANCED_BREP_SHAPE_REPRESENTATION ( 'AC-10', ( #343, #107 ), #312 ) ;
#199 = VERTEX_POINT ( 'NONE', #18 ) ;
#200 = VERTEX_POINT ( 'NONE', #340 ) ;
#201 = AXIS2_PLACEMENT_3D ( 'NONE', #64, #87, #208 ) ;
#202 = EDGE_CURVE ( 'NONE', #55, #27, #337, .T. ) ;
#203 = CYLINDRICAL_SURFACE ( 'NONE', #112, 5.000000000000000000 ) ;
#204 = CYLINDRICAL_SURFACE ( 'NONE', #91, 5.125000000000001776 ) ;
#205 = VECTOR ( 'NONE', #34, 39.37007874015748143 ) ;
#206 = CARTESIAN_POINT ( 'NONE',  ( 0.3125000000000005551, 0.0000000000000000000, 0.0000000000000000000 ) ) ;
#207 = PRODUCT_RELATED_PRODUCT_CATEGORY ( 'part', '', ( #76 ) ) ;
#208 = DIRECTION ( 'NONE',  ( 0.0000000000000000000, 0.0000000000000000000, 1.000000000000000000 ) ) ;
#209 = LINE ( 'NONE', #65, #285 ) ;
#210 = LINE ( 'NONE', #152, #306 ) ;
#211 = AXIS2_PLACEMENT_3D ( 'NONE', #280, #183, #215 ) ;
#212 = AXIS2_PLACEMENT_3D ( 'NONE', #145, #134, #73 ) ;
#213 = DIRECTION ( 'NONE',  ( -0.0000000000000000000, 0.0000000000000000000, 1.000000000000000000 ) ) ;
#214 = ORIENTED_EDGE ( 'NONE', *, *, #104, .T. ) ;
#215 = DIRECTION ( 'NONE',  ( 0.0000000000000000000, 0.0000000000000000000, 1.000000000000000000 ) ) ;
#216 = ORIENTED_EDGE ( 'NONE', *, *, #305, .F. ) ;
#217 = FILL_AREA_STYLE ('',( #93 ) ) ;
#218 = CARTESIAN_POINT ( 'NONE',  ( 3.875000000000000444, 6.123233995736766282E-16, -5.000000000000000000 ) ) ;
#219 = DIRECTION ( 'NONE',  ( 0.0000000000000000000, 0.0000000000000000000, 1.000000000000000000 ) ) ;
#220 = AXIS2_PLACEMENT_3D ( 'NONE', #58, #67, #32 ) ;
#221 = DIRECTION ( 'NONE',  ( 0.0000000000000000000, 0.0000000000000000000, 1.000000000000000000 ) ) ;
#222 = EDGE_CURVE ( 'NONE', #199, #225, #357, .T. ) ;
#223 = ORIENTED_EDGE ( 'NONE', *, *, #305, .T. ) ;
#224 = FACE_OUTER_BOUND ( 'NONE', #108, .T. ) ;
#225 = VERTEX_POINT ( 'NONE', #159 ) ;
#226 = EDGE_CURVE ( 'NONE', #137, #24, #149, .T. ) ;
#227 = AXIS2_PLACEMENT_3D ( 'NONE', #342, #251, #372 ) ;
#228 = MECHANICAL_DESIGN_GEOMETRIC_PRESENTATION_REPRESENTATION (  '', ( #196 ), #60 ) ;
#229 = APPLICATION_PROTOCOL_DEFINITION ( 'draft international standard', 'automotive_design', 1998, #29 ) ;
#230 = ORIENTED_EDGE ( 'NONE', *, *, #226, .F. ) ;
#231 = ORIENTED_EDGE ( 'NONE', *, *, #136, .T. ) ;
#232 = ORIENTED_EDGE ( 'NONE', *, *, #109, .T. ) ;
#233 = ADVANCED_FACE ( 'NONE', ( #128 ), #249, .T. ) ;
#234 = FACE_OUTER_BOUND ( 'NONE', #322, .T. ) ;
#235 = CARTESIAN_POINT ( 'NONE',  ( 0.3125000000000005551, 0.0000000000000000000, 5.000000000000000000 ) ) ;
#236 = SURFACE_SIDE_STYLE ('',( #116 ) ) ;
#237 = CYLINDRICAL_SURFACE ( 'NONE', #250, 2.000000000000000000 ) ;
#238 = AXIS2_PLACEMENT_3D ( 'NONE', #131, #100, #278 ) ;
#239 = CYLINDRICAL_SURFACE ( 'NONE', #157, 1.515625000000000000 ) ;
#240 = CARTESIAN_POINT ( 'NONE',  ( 0.0000000000000000000, 0.0000000000000000000, 0.0000000000000000000 ) ) ;
#241 = CARTESIAN_POINT ( 'NONE',  ( 9.375000000000000000, 0.0000000000000000000, 2.000000000000000000 ) ) ;
#242 = DIRECTION ( 'NONE',  ( -1.000000000000000000, -0.0000000000000000000, -0.0000000000000000000 ) ) ;
#243 = FACE_OUTER_BOUND ( 'NONE', #22, .T. ) ;
#244 = DIRECTION ( 'NONE',  ( -1.000000000000000000, 0.0000000000000000000, -0.0000000000000000000 ) ) ;
#245 = ADVANCED_FACE ( 'NONE', ( #74 ), #102, .T. ) ;
#246 = CIRCLE ( 'NONE', #348, 5.000000000000000000 ) ;
#247 = CARTESIAN_POINT ( 'NONE',  ( 3.875000000000000444, 0.0000000000000000000, 0.0000000000000000000 ) ) ;
#248 =( NAMED_UNIT ( * ) SI_UNIT ( $, .STERADIAN. ) SOLID_ANGLE_UNIT ( ) );
#249 = CYLINDRICAL_SURFACE ( 'NONE', #227, 2.000000000000000000 ) ;
#250 = AXIS2_PLACEMENT_3D ( 'NONE', #2, #356, #61 ) ;
#251 = DIRECTION ( 'NONE',  ( -1.000000000000000000, -0.0000000000000000000, -0.0000000000000000000 ) ) ;
#252 = VERTEX_POINT ( 'NONE', #241 ) ;
#253 = ORIENTED_EDGE ( 'NONE', *, *, #270, .T. ) ;
#254 = ORIENTED_EDGE ( 'NONE', *, *, #270, .F. ) ;
#255 = PRODUCT_CONTEXT ( 'NONE', #167, 'mechanical' ) ;
#256 = EDGE_CURVE ( 'NONE', #199, #98, #209, .T. ) ;
#257 = ORIENTED_EDGE ( 'NONE', *, *, #150, .F. ) ;
#258 = CLOSED_SHELL ( 'NONE', ( #62, #336, #233, #17, #23, #120, #3, #144, #80, #351, #245, #287 ) ) ;
#259 = PLANE ( 'NONE',  #332 ) ;
#260 = PRODUCT_DEFINITION_FORMATION_WITH_SPECIFIED_SOURCE ( 'ANY', '', #76, .NOT_KNOWN. ) ;
#261 = VERTEX_POINT ( 'NONE', #8 ) ;
#262 = FILL_AREA_STYLE ('',( #359 ) ) ;
#263 = DIRECTION ( 'NONE',  ( 0.0000000000000000000, 0.0000000000000000000, 1.000000000000000000 ) ) ;
#264 = DIRECTION ( 'NONE',  ( -1.000000000000000000, -0.0000000000000000000, -0.0000000000000000000 ) ) ;
#265 = CYLINDRICAL_SURFACE ( 'NONE', #164, 5.000000000000000000 ) ;
#266 = AXIS2_PLACEMENT_3D ( 'NONE', #180, #382, #290 ) ;
#267 = FACE_OUTER_BOUND ( 'NONE', #52, .T. ) ;
#268 = UNCERTAINTY_MEASURE_WITH_UNIT (LENGTH_MEASURE( 1.000000000000000082E-05 ), #20, 'distance_accuracy_value', 'NONE');
#269 = DIRECTION ( 'NONE',  ( -1.000000000000000000, -0.0000000000000000000, -0.0000000000000000000 ) ) ;
#270 = EDGE_CURVE ( 'NONE', #103, #27, #341, .T. ) ;
#271 = LENGTH_MEASURE_WITH_UNIT ( LENGTH_MEASURE( 0.02539999999999999897 ), #309 );
#272 = LINE ( 'NONE', #365, #66 ) ;
#273 = ORIENTED_EDGE ( 'NONE', *, *, #104, .F. ) ;
#274 = AXIS2_PLACEMENT_3D ( 'NONE', #153, #317, #57 ) ;
#275 = CARTESIAN_POINT ( 'NONE',  ( 3.875000000000000444, 0.0000000000000000000, 1.999999999999999778 ) ) ;
#276 = PRODUCT_DEFINITION ( 'UNKNOWN', '', #260, #30 ) ;
#277 = LENGTH_MEASURE_WITH_UNIT ( LENGTH_MEASURE( 0.02539999999999999897 ), #301 );
#278 = DIRECTION ( 'NONE',  ( 0.0000000000000000000, 0.0000000000000000000, 1.000000000000000000 ) ) ;
#279 = EDGE_LOOP ( 'NONE', ( #169, #253 ) ) ;
#280 = CARTESIAN_POINT ( 'NONE',  ( 0.0000000000000000000, 0.0000000000000000000, 0.0000000000000000000 ) ) ;
#281 = ORIENTED_EDGE ( 'NONE', *, *, #13, .F. ) ;
#282 = SURFACE_STYLE_USAGE ( .BOTH. , #344 ) ;
#283 = EDGE_LOOP ( 'NONE', ( #374, #110, #230, #289 ) ) ;
#284 = ORIENTED_EDGE ( 'NONE', *, *, #170, .T. ) ;
#285 = VECTOR ( 'NONE', #295, 39.37007874015748143 ) ;
#286 = ORIENTED_EDGE ( 'NONE', *, *, #347, .F. ) ;
#287 = ADVANCED_FACE ( 'NONE', ( #243, #327 ), #35, .F. ) ;
#288 = EDGE_LOOP ( 'NONE', ( #381, #223 ) ) ;
#289 = ORIENTED_EDGE ( 'NONE', *, *, #126, .F. ) ;
#290 = DIRECTION ( 'NONE',  ( 0.0000000000000000000, 0.0000000000000000000, 1.000000000000000000 ) ) ;
#291 = AXIS2_PLACEMENT_3D ( 'NONE', #325, #37, #1 ) ;
#292 = DIRECTION ( 'NONE',  ( 0.0000000000000000000, 0.0000000000000000000, -1.000000000000000000 ) ) ;
#293 =( GEOMETRIC_REPRESENTATION_CONTEXT ( 3 ) GLOBAL_UNCERTAINTY_ASSIGNED_CONTEXT ( ( #88 ) ) GLOBAL_UNIT_ASSIGNED_CONTEXT ( ( #96, #368, #187 ) ) REPRESENTATION_CONTEXT ( 'NONE', 'WORKASPACE' ) );
#294 = CARTESIAN_POINT ( 'NONE',  ( 0.0000000000000000000, 6.276314845630187190E-16, -5.125000000000001776 ) ) ;
#295 = DIRECTION ( 'NONE',  ( 1.000000000000000000, -0.0000000000000000000, -0.0000000000000000000 ) ) ;
#296 = DIRECTION ( 'NONE',  ( 0.0000000000000000000, 0.0000000000000000000, 1.000000000000000000 ) ) ;
#297 = LINE ( 'NONE', #118, #311 ) ;
#298 = AXIS2_PLACEMENT_3D ( 'NONE', #147, #264, #84 ) ;
#299 = DIRECTION ( 'NONE',  ( 0.0000000000000000000, 0.0000000000000000000, 1.000000000000000000 ) ) ;
#300 = DIRECTION ( 'NONE',  ( -1.000000000000000000, -0.0000000000000000000, -0.0000000000000000000 ) ) ;
#301 =( LENGTH_UNIT ( ) NAMED_UNIT ( * ) SI_UNIT ( $, .METRE. ) );
#302 = DIRECTION ( 'NONE',  ( 1.000000000000000000, 0.0000000000000000000, 0.0000000000000000000 ) ) ;
#303 = CARTESIAN_POINT ( 'NONE',  ( 0.0000000000000000000, 6.276314845630187190E-16, -5.125000000000001776 ) ) ;
#304 = DIRECTION ( 'NONE',  ( 0.0000000000000000000, 0.0000000000000000000, 1.000000000000000000 ) ) ;
#305 = EDGE_CURVE ( 'NONE', #225, #199, #59, .T. ) ;
#306 = VECTOR ( 'NONE', #300, 39.37007874015748143 ) ;
#307 = CARTESIAN_POINT ( 'NONE',  ( 0.0000000000000000000, 0.0000000000000000000, 0.0000000000000000000 ) ) ;
#308 = CARTESIAN_POINT ( 'NONE',  ( 9.375000000000000000, 0.0000000000000000000, 0.0000000000000000000 ) ) ;
#309 =( LENGTH_UNIT ( ) NAMED_UNIT ( * ) SI_UNIT ( $, .METRE. ) );
#310 = CARTESIAN_POINT ( 'NONE',  ( 0.3125000000000005551, 0.0000000000000000000, 0.0000000000000000000 ) ) ;
#311 = VECTOR ( 'NONE', #6, 39.37007874015748143 ) ;
#312 =( GEOMETRIC_REPRESENTATION_CONTEXT ( 3 ) GLOBAL_UNCERTAINTY_ASSIGNED_CONTEXT ( ( #268 ) ) GLOBAL_UNIT_ASSIGNED_CONTEXT ( ( #20, #190, #248 ) ) REPRESENTATION_CONTEXT ( 'NONE', 'WORKASPACE' ) );
#313 = EDGE_CURVE ( 'NONE', #354, #189, #106, .T. ) ;
#314 = AXIS2_PLACEMENT_3D ( 'NONE', #206, #242, #296 ) ;
#315 = ORIENTED_EDGE ( 'NONE', *, *, #136, .F. ) ;
#316 = ORIENTED_EDGE ( 'NONE', *, *, #13, .T. ) ;
#317 = DIRECTION ( 'NONE',  ( 1.000000000000000000, 0.0000000000000000000, 0.0000000000000000000 ) ) ;
#318 = DIRECTION ( 'NONE',  ( 1.000000000000000000, 0.0000000000000000000, 0.0000000000000000000 ) ) ;
#319 = DIMENSIONAL_EXPONENTS ( 1.000000000000000000, 0.0000000000000000000, 0.0000000000000000000, 0.0000000000000000000, 0.0000000000000000000, 0.0000000000000000000, 0.0000000000000000000 ) ;
#320 = CARTESIAN_POINT ( 'NONE',  ( 0.0000000000000000000, 0.0000000000000000000, 0.0000000000000000000 ) ) ;
#321 = PRESENTATION_LAYER_ASSIGNMENT (  '', '', ( #132 ) ) ;
#322 = EDGE_LOOP ( 'NONE', ( #39, #12, #362, #79 ) ) ;
#323 = CIRCLE ( 'NONE', #124, 5.000000000000000000 ) ;
#324 = UNCERTAINTY_MEASURE_WITH_UNIT (LENGTH_MEASURE( 1.000000000000000082E-05 ), #122, 'distance_accuracy_value', 'NONE');
#325 = CARTESIAN_POINT ( 'NONE',  ( 0.3125000000000005551, 5.000000000000000000, 0.0000000000000000000 ) ) ;
#326 = DIRECTION ( 'NONE',  ( -1.000000000000000000, -0.0000000000000000000, -0.0000000000000000000 ) ) ;
#327 = FACE_BOUND ( 'NONE', #279, .T. ) ;
#328 = DIRECTION ( 'NONE',  ( 0.0000000000000000000, 0.0000000000000000000, 1.000000000000000000 ) ) ;
#329 = DIRECTION ( 'NONE',  ( -1.000000000000000000, -0.0000000000000000000, -0.0000000000000000000 ) ) ;
#330 = FACE_OUTER_BOUND ( 'NONE', #346, .T. ) ;
#331 = CIRCLE ( 'NONE', #123, 2.000000000000000000 ) ;
#332 = AXIS2_PLACEMENT_3D ( 'NONE', #113, #318, #292 ) ;
#333 = DIRECTION ( 'NONE',  ( 1.000000000000000000, -0.0000000000000000000, -0.0000000000000000000 ) ) ;
#334 = DIRECTION ( 'NONE',  ( -1.000000000000000000, -0.0000000000000000000, -0.0000000000000000000 ) ) ;
#335 = EDGE_LOOP ( 'NONE', ( #353, #379 ) ) ;
#336 = ADVANCED_FACE ( 'NONE', ( #4 ), #239, .F. ) ;
#337 = LINE ( 'NONE', #44, #38 ) ;
#338 = ORIENTED_EDGE ( 'NONE', *, *, #163, .T. ) ;
#339 = PRESENTATION_STYLE_ASSIGNMENT (( #282 ) ) ;
#340 = CARTESIAN_POINT ( 'NONE',  ( 0.3125000000000005551, 6.276314845630187190E-16, -5.125000000000001776 ) ) ;
#341 = CIRCLE ( 'NONE', #266, 5.000000000000000000 ) ;
#342 = CARTESIAN_POINT ( 'NONE',  ( 0.0000000000000000000, 0.0000000000000000000, 0.0000000000000000000 ) ) ;
#343 = MANIFOLD_SOLID_BREP ( 'Revolve2', #258 ) ;
#344 = SURFACE_SIDE_STYLE ('',( #371 ) ) ;
#345 = CARTESIAN_POINT ( 'NONE',  ( 9.375000000000000000, 0.0000000000000000000, 0.0000000000000000000 ) ) ;
#346 = EDGE_LOOP ( 'NONE', ( #36, #378 ) ) ;
#347 = EDGE_CURVE ( 'NONE', #184, #55, #158, .T. ) ;
#348 = AXIS2_PLACEMENT_3D ( 'NONE', #247, #367, #304 ) ;
#349 = COLOUR_RGB ( '',0.7921568627450980005, 0.8196078431372548767, 0.9333333333333333481 ) ;
#350 = ORIENTED_EDGE ( 'NONE', *, *, #202, .T. ) ;
#351 = ADVANCED_FACE ( 'NONE', ( #182 ), #185, .F. ) ;
#352 = ORIENTED_EDGE ( 'NONE', *, *, #361, .F. ) ;
#353 = ORIENTED_EDGE ( 'NONE', *, *, #226, .T. ) ;
#354 = VERTEX_POINT ( 'NONE', #303 ) ;
#355 = EDGE_LOOP ( 'NONE', ( #376, #143, #16, #316 ) ) ;
#356 = DIRECTION ( 'NONE',  ( -1.000000000000000000, -0.0000000000000000000, -0.0000000000000000000 ) ) ;
#357 = CIRCLE ( 'NONE', #31, 1.515625000000000000 ) ;
#358 = CARTESIAN_POINT ( 'NONE',  ( 9.375000000000000000, 0.0000000000000000000, 0.0000000000000000000 ) ) ;
#359 = FILL_AREA_STYLE_COLOUR ( '', #166 ) ;
#360 = DIRECTION ( 'NONE',  ( -1.000000000000000000, -0.0000000000000000000, -0.0000000000000000000 ) ) ;
#361 = EDGE_CURVE ( 'NONE', #27, #103, #323, .T. ) ;
#362 = ORIENTED_EDGE ( 'NONE', *, *, #126, .T. ) ;
#363 = PLANE ( 'NONE',  #19 ) ;
#364 = AXIS2_PLACEMENT_3D ( 'NONE', #358, #177, #148 ) ;
#365 = CARTESIAN_POINT ( 'NONE',  ( 0.0000000000000000000, 1.856105304957707054E-16, 1.515625000000000000 ) ) ;
#366 = ORIENTED_EDGE ( 'NONE', *, *, #90, .F. ) ;
#367 = DIRECTION ( 'NONE',  ( -1.000000000000000000, -0.0000000000000000000, -0.0000000000000000000 ) ) ;
#368 =( NAMED_UNIT ( * ) PLANE_ANGLE_UNIT ( ) SI_UNIT ( $, .RADIAN. ) );
#369 = DIRECTION ( 'NONE',  ( -1.000000000000000000, -0.0000000000000000000, -0.0000000000000000000 ) ) ;
#370 = VECTOR ( 'NONE', #269, 39.37007874015748143 ) ;
#371 = SURFACE_STYLE_FILL_AREA ( #217 ) ;
#372 = DIRECTION ( 'NONE',  ( 0.0000000000000000000, 0.0000000000000000000, 1.000000000000000000 ) ) ;
#373 = ORIENTED_EDGE ( 'NONE', *, *, #90, .T. ) ;
#374 = ORIENTED_EDGE ( 'NONE', *, *, #78, .T. ) ;
#375 = DIRECTION ( 'NONE',  ( 0.0000000000000000000, 0.0000000000000000000, 1.000000000000000000 ) ) ;
#376 = ORIENTED_EDGE ( 'NONE', *, *, #109, .F. ) ;
#377 = MECHANICAL_DESIGN_GEOMETRIC_PRESENTATION_REPRESENTATION (  '', ( #132 ), #293 ) ;
#378 = ORIENTED_EDGE ( 'NONE', *, *, #313, .T. ) ;
#379 = ORIENTED_EDGE ( 'NONE', *, *, #51, .T. ) ;
#380 = VECTOR ( 'NONE', #369, 39.37007874015748143 ) ;
#381 = ORIENTED_EDGE ( 'NONE', *, *, #222, .T. ) ;
#382 = DIRECTION ( 'NONE',  ( -1.000000000000000000, -0.0000000000000000000, -0.0000000000000000000 ) ) ;
#383 = CARTESIAN_POINT ( 'NONE',  ( 3.875000000000000444, 2.449293598294705921E-16, -1.999999999999999778 ) ) ;
ENDSEC;
END-ISO-10303-21;
