ISO-10303-21;
HEADER;
FILE_DESCRIPTION (( 'STEP AP214' ),
    '1' );
FILE_NAME ('3ACS-8.STEP',
    '2020-10-26T23:43:24',
    ( '' ),
    ( '' ),
    'SwSTEP 2.0',
    'SolidWorks 2019',
    '' );
FILE_SCHEMA (( 'AUTOMOTIVE_DESIGN' ));
ENDSEC;

DATA;
#1 = AXIS2_PLACEMENT_3D ( 'NONE', #31, #127, #217 ) ;
#2 = VERTEX_POINT ( 'NONE', #185 ) ;
#3 = PRESENTATION_STYLE_ASSIGNMENT (( #147 ) ) ;
#4 =( LENGTH_UNIT ( ) NAMED_UNIT ( * ) SI_UNIT ( $, .METRE. ) );
#5 = EDGE_CURVE ( 'NONE', #119, #191, #41, .T. ) ;
#6 = LINE ( 'NONE', #148, #53 ) ;
#7 = DIRECTION ( 'NONE',  ( 1.000000000000000000, -0.0000000000000000000, -0.0000000000000000000 ) ) ;
#8 = AXIS2_PLACEMENT_3D ( 'NONE', #293, #32, #193 ) ;
#9 = APPLICATION_CONTEXT ( 'automotive_design' ) ;
#10 = CIRCLE ( 'NONE', #247, 3.999999999999999556 ) ;
#11 = CARTESIAN_POINT ( 'NONE',  ( 0.0000000000000000000, 4.898587196589411843E-16, -3.999999999999999556 ) ) ;
#12 = CIRCLE ( 'NONE', #271, 4.000000000000000000 ) ;
#13 = ORIENTED_EDGE ( 'NONE', *, *, #76, .F. ) ;
#14 = CARTESIAN_POINT ( 'NONE',  ( 9.375000000000000000, 0.0000000000000000000, 0.0000000000000000000 ) ) ;
#15 = DIRECTION ( 'NONE',  ( -1.000000000000000000, -0.0000000000000000000, -0.0000000000000000000 ) ) ;
#16 = ORIENTED_EDGE ( 'NONE', *, *, #284, .F. ) ;
#17 = CARTESIAN_POINT ( 'NONE',  ( 0.0000000000000000000, 0.0000000000000000000, 2.000000000000000000 ) ) ;
#18 = DIRECTION ( 'NONE',  ( -1.000000000000000000, -0.0000000000000000000, -0.0000000000000000000 ) ) ;
#19 = ORIENTED_EDGE ( 'NONE', *, *, #64, .F. ) ;
#20 = ADVANCED_FACE ( 'NONE', ( #69, #248 ), #39, .F. ) ;
#21 = FACE_BOUND ( 'NONE', #227, .T. ) ;
#22 = ORIENTED_EDGE ( 'NONE', *, *, #215, .F. ) ;
#23 = DIMENSIONAL_EXPONENTS ( 1.000000000000000000, 0.0000000000000000000, 0.0000000000000000000, 0.0000000000000000000, 0.0000000000000000000, 0.0000000000000000000, 0.0000000000000000000 ) ;
#24 = ORIENTED_EDGE ( 'NONE', *, *, #87, .T. ) ;
#25 = COLOUR_RGB ( '',0.7921568627450980005, 0.8196078431372548767, 0.9333333333333333481 ) ;
#26 = VECTOR ( 'NONE', #86, 39.37007874015748143 ) ;
#27 = FILL_AREA_STYLE_COLOUR ( '', #188 ) ;
#28 = EDGE_CURVE ( 'NONE', #118, #200, #10, .T. ) ;
#29 = CIRCLE ( 'NONE', #184, 1.515625000000000000 ) ;
#30 = CARTESIAN_POINT ( 'NONE',  ( 0.0000000000000000000, 0.0000000000000000000, 0.0000000000000000000 ) ) ;
#31 = CARTESIAN_POINT ( 'NONE',  ( 0.0000000000000000000, 0.0000000000000000000, 0.0000000000000000000 ) ) ;
#32 = DIRECTION ( 'NONE',  ( -1.000000000000000000, -0.0000000000000000000, -0.0000000000000000000 ) ) ;
#33 = DIRECTION ( 'NONE',  ( -1.000000000000000000, -0.0000000000000000000, -0.0000000000000000000 ) ) ;
#34 = DIRECTION ( 'NONE',  ( -1.000000000000000000, -0.0000000000000000000, -0.0000000000000000000 ) ) ;
#35 = DIRECTION ( 'NONE',  ( 0.0000000000000000000, 0.0000000000000000000, 1.000000000000000000 ) ) ;
#36 = CARTESIAN_POINT ( 'NONE',  ( 0.0000000000000000000, 0.0000000000000000000, 0.0000000000000000000 ) ) ;
#37 = VECTOR ( 'NONE', #15, 39.37007874015748143 ) ;
#38 = LINE ( 'NONE', #17, #104 ) ;
#39 = PLANE ( 'NONE',  #295 ) ;
#40 = FILL_AREA_STYLE_COLOUR ( '', #25 ) ;
#41 = LINE ( 'NONE', #159, #55 ) ;
#42 = PLANE ( 'NONE',  #131 ) ;
#43 = EDGE_CURVE ( 'NONE', #191, #183, #73, .T. ) ;
#44 = CIRCLE ( 'NONE', #179, 1.515625000000000000 ) ;
#45 = CARTESIAN_POINT ( 'NONE',  ( 9.375000000000000000, 0.0000000000000000000, 0.0000000000000000000 ) ) ;
#46 = PRODUCT_DEFINITION_FORMATION_WITH_SPECIFIED_SOURCE ( 'ANY', '', #182, .NOT_KNOWN. ) ;
#47 = ORIENTED_EDGE ( 'NONE', *, *, #297, .F. ) ;
#48 = ORIENTED_EDGE ( 'NONE', *, *, #5, .T. ) ;
#49 = FACE_OUTER_BOUND ( 'NONE', #110, .T. ) ;
#50 =( NAMED_UNIT ( * ) SI_UNIT ( $, .STERADIAN. ) SOLID_ANGLE_UNIT ( ) );
#51 = DIRECTION ( 'NONE',  ( 0.0000000000000000000, 0.0000000000000000000, -1.000000000000000000 ) ) ;
#52 =( NAMED_UNIT ( * ) PLANE_ANGLE_UNIT ( ) SI_UNIT ( $, .RADIAN. ) );
#53 = VECTOR ( 'NONE', #7, 39.37007874015748143 ) ;
#54 = EDGE_CURVE ( 'NONE', #302, #200, #225, .T. ) ;
#55 = VECTOR ( 'NONE', #18, 39.37007874015748143 ) ;
#56 =( CONVERSION_BASED_UNIT ( 'INCH', #172 ) LENGTH_UNIT ( ) NAMED_UNIT ( #78 ) );
#57 = DIRECTION ( 'NONE',  ( -1.000000000000000000, -0.0000000000000000000, -0.0000000000000000000 ) ) ;
#58 = PRODUCT_DEFINITION_CONTEXT ( 'detailed design', #9, 'design' ) ;
#59 = EDGE_CURVE ( 'NONE', #119, #2, #175, .T. ) ;
#60 = DIRECTION ( 'NONE',  ( 0.0000000000000000000, 0.0000000000000000000, 1.000000000000000000 ) ) ;
#61 = FACE_OUTER_BOUND ( 'NONE', #226, .T. ) ;
#62 = CARTESIAN_POINT ( 'NONE',  ( 9.375000000000000000, 0.0000000000000000000, 0.0000000000000000000 ) ) ;
#63 =( LENGTH_UNIT ( ) NAMED_UNIT ( * ) SI_UNIT ( $, .METRE. ) );
#64 = EDGE_CURVE ( 'NONE', #122, #92, #167, .T. ) ;
#65 = CARTESIAN_POINT ( 'NONE',  ( 3.875000000000000444, 2.449293598294705921E-16, -1.999999999999999778 ) ) ;
#66 = ORIENTED_EDGE ( 'NONE', *, *, #139, .T. ) ;
#67 = AXIS2_PLACEMENT_3D ( 'NONE', #255, #258, #141 ) ;
#68 = FACE_OUTER_BOUND ( 'NONE', #281, .T. ) ;
#69 = FACE_BOUND ( 'NONE', #140, .T. ) ;
#70 = ORIENTED_EDGE ( 'NONE', *, *, #87, .F. ) ;
#71 = ORIENTED_EDGE ( 'NONE', *, *, #5, .F. ) ;
#72 = CIRCLE ( 'NONE', #254, 3.999999999999999556 ) ;
#73 = CIRCLE ( 'NONE', #197, 1.999999999999999778 ) ;
#74 = PRODUCT_DEFINITION_SHAPE ( 'NONE', 'NONE',  #219 ) ;
#75 = ORIENTED_EDGE ( 'NONE', *, *, #79, .F. ) ;
#76 = EDGE_CURVE ( 'NONE', #2, #119, #285, .T. ) ;
#77 = EDGE_LOOP ( 'NONE', ( #132, #19 ) ) ;
#78 = DIMENSIONAL_EXPONENTS ( 1.000000000000000000, 0.0000000000000000000, 0.0000000000000000000, 0.0000000000000000000, 0.0000000000000000000, 0.0000000000000000000, 0.0000000000000000000 ) ;
#79 = EDGE_CURVE ( 'NONE', #232, #278, #29, .T. ) ;
#80 = DIRECTION ( 'NONE',  ( -1.000000000000000000, -0.0000000000000000000, -0.0000000000000000000 ) ) ;
#81 = AXIS2_PLACEMENT_3D ( 'NONE', #268, #129, #107 ) ;
#82 = CARTESIAN_POINT ( 'NONE',  ( 9.375000000000000000, 0.0000000000000000000, 0.0000000000000000000 ) ) ;
#83 = FACE_OUTER_BOUND ( 'NONE', #300, .T. ) ;
#84 = UNCERTAINTY_MEASURE_WITH_UNIT (LENGTH_MEASURE( 1.000000000000000082E-05 ), #199, 'distance_accuracy_value', 'NONE');
#85 = CYLINDRICAL_SURFACE ( 'NONE', #81, 2.000000000000000000 ) ;
#86 = DIRECTION ( 'NONE',  ( -1.000000000000000000, -0.0000000000000000000, -0.0000000000000000000 ) ) ;
#87 = EDGE_CURVE ( 'NONE', #302, #211, #192, .T. ) ;
#88 = SURFACE_STYLE_FILL_AREA ( #296 ) ;
#89 = ORIENTED_EDGE ( 'NONE', *, *, #152, .T. ) ;
#90 = DIRECTION ( 'NONE',  ( -0.0000000000000000000, 0.0000000000000000000, 1.000000000000000000 ) ) ;
#91 = DIRECTION ( 'NONE',  ( 1.000000000000000000, 0.0000000000000000000, 0.0000000000000000000 ) ) ;
#92 = VERTEX_POINT ( 'NONE', #121 ) ;
#93 = EDGE_LOOP ( 'NONE', ( #164, #66, #168, #47 ) ) ;
#94 = APPLICATION_PROTOCOL_DEFINITION ( 'draft international standard', 'automotive_design', 1998, #174 ) ;
#95 = CARTESIAN_POINT ( 'NONE',  ( 0.0000000000000000000, 1.856105304957707054E-16, 1.515625000000000000 ) ) ;
#96 = DIRECTION ( 'NONE',  ( 0.0000000000000000000, 0.0000000000000000000, -1.000000000000000000 ) ) ;
#97 = ORIENTED_EDGE ( 'NONE', *, *, #128, .T. ) ;
#98 = AXIS2_PLACEMENT_3D ( 'NONE', #62, #155, #243 ) ;
#99 = ADVANCED_FACE ( 'NONE', ( #49 ), #214, .F. ) ;
#100 = DIRECTION ( 'NONE',  ( 1.000000000000000000, 0.0000000000000000000, 0.0000000000000000000 ) ) ;
#101 = AXIS2_PLACEMENT_3D ( 'NONE', #252, #280, #165 ) ;
#102 = CARTESIAN_POINT ( 'NONE',  ( 3.875000000000000444, 4.898587196589412829E-16, -4.000000000000000000 ) ) ;
#103 =( GEOMETRIC_REPRESENTATION_CONTEXT ( 3 ) GLOBAL_UNCERTAINTY_ASSIGNED_CONTEXT ( ( #153 ) ) GLOBAL_UNIT_ASSIGNED_CONTEXT ( ( #171, #52, #250 ) ) REPRESENTATION_CONTEXT ( 'NONE', 'WORKASPACE' ) );
#104 = VECTOR ( 'NONE', #275, 39.37007874015748143 ) ;
#105 = CARTESIAN_POINT ( 'NONE',  ( 3.875000000000000444, 0.0000000000000000000, 4.000000000000000000 ) ) ;
#106 = DIRECTION ( 'NONE',  ( 0.0000000000000000000, 0.0000000000000000000, 1.000000000000000000 ) ) ;
#107 = DIRECTION ( 'NONE',  ( 0.0000000000000000000, 0.0000000000000000000, 1.000000000000000000 ) ) ;
#108 = ADVANCED_FACE ( 'NONE', ( #292 ), #177, .T. ) ;
#109 = CIRCLE ( 'NONE', #216, 1.515625000000000000 ) ;
#110 = EDGE_LOOP ( 'NONE', ( #233, #75, #137, #169 ) ) ;
#111 =( NAMED_UNIT ( * ) SI_UNIT ( $, .STERADIAN. ) SOLID_ANGLE_UNIT ( ) );
#112 = ORIENTED_EDGE ( 'NONE', *, *, #79, .T. ) ;
#113 = DIRECTION ( 'NONE',  ( -1.000000000000000000, -0.0000000000000000000, -0.0000000000000000000 ) ) ;
#114 = DIRECTION ( 'NONE',  ( -1.000000000000000000, -0.0000000000000000000, -0.0000000000000000000 ) ) ;
#115 = CARTESIAN_POINT ( 'NONE',  ( 3.875000000000000444, 0.0000000000000000000, 0.0000000000000000000 ) ) ;
#116 = ADVANCED_FACE ( 'NONE', ( #61 ), #85, .T. ) ;
#117 = EDGE_LOOP ( 'NONE', ( #89, #189, #203, #208 ) ) ;
#118 = VERTEX_POINT ( 'NONE', #195 ) ;
#119 = VERTEX_POINT ( 'NONE', #294 ) ;
#120 = ADVANCED_FACE ( 'NONE', ( #180 ), #289, .F. ) ;
#121 = CARTESIAN_POINT ( 'NONE',  ( 9.375000000000000000, 0.0000000000000000000, -1.515625000000000000 ) ) ;
#122 = VERTEX_POINT ( 'NONE', #146 ) ;
#123 = LENGTH_MEASURE_WITH_UNIT ( LENGTH_MEASURE( 0.02539999999999999897 ), #4 );
#124 = LINE ( 'NONE', #166, #37 ) ;
#125 =( NAMED_UNIT ( * ) PLANE_ANGLE_UNIT ( ) SI_UNIT ( $, .RADIAN. ) );
#126 = EDGE_CURVE ( 'NONE', #211, #118, #124, .T. ) ;
#127 = DIRECTION ( 'NONE',  ( 1.000000000000000000, -0.0000000000000000000, -0.0000000000000000000 ) ) ;
#128 = EDGE_CURVE ( 'NONE', #2, #183, #38, .T. ) ;
#129 = DIRECTION ( 'NONE',  ( -1.000000000000000000, -0.0000000000000000000, -0.0000000000000000000 ) ) ;
#130 = CARTESIAN_POINT ( 'NONE',  ( 3.875000000000000444, 0.0000000000000000000, 0.0000000000000000000 ) ) ;
#131 = AXIS2_PLACEMENT_3D ( 'NONE', #45, #161, #90 ) ;
#132 = ORIENTED_EDGE ( 'NONE', *, *, #212, .F. ) ;
#133 = DIRECTION ( 'NONE',  ( -1.000000000000000000, -0.0000000000000000000, -0.0000000000000000000 ) ) ;
#134 = FACE_OUTER_BOUND ( 'NONE', #259, .T. ) ;
#135 = DIRECTION ( 'NONE',  ( 0.0000000000000000000, 0.0000000000000000000, 1.000000000000000000 ) ) ;
#136 = CIRCLE ( 'NONE', #290, 1.999999999999999778 ) ;
#137 = ORIENTED_EDGE ( 'NONE', *, *, #297, .T. ) ;
#138 =( NAMED_UNIT ( * ) PLANE_ANGLE_UNIT ( ) SI_UNIT ( $, .RADIAN. ) );
#139 = EDGE_CURVE ( 'NONE', #278, #122, #202, .T. ) ;
#140 = EDGE_LOOP ( 'NONE', ( #112, #301 ) ) ;
#141 = DIRECTION ( 'NONE',  ( 0.0000000000000000000, 0.0000000000000000000, 1.000000000000000000 ) ) ;
#142 = ORIENTED_EDGE ( 'NONE', *, *, #215, .T. ) ;
#143 = DIRECTION ( 'NONE',  ( 1.000000000000000000, -0.0000000000000000000, -0.0000000000000000000 ) ) ;
#144 = AXIS2_PLACEMENT_3D ( 'NONE', #194, #34, #267 ) ;
#145 = AXIS2_PLACEMENT_3D ( 'NONE', #181, #298, #162 ) ;
#146 = CARTESIAN_POINT ( 'NONE',  ( 9.375000000000000000, 1.856105304957707054E-16, 1.515625000000000000 ) ) ;
#147 = SURFACE_STYLE_USAGE ( .BOTH. , #213 ) ;
#148 = CARTESIAN_POINT ( 'NONE',  ( 0.0000000000000000000, 0.0000000000000000000, -1.515625000000000000 ) ) ;
#149 = ADVANCED_FACE ( 'NONE', ( #163, #68 ), #42, .F. ) ;
#150 = FACE_OUTER_BOUND ( 'NONE', #256, .T. ) ;
#151 = CARTESIAN_POINT ( 'NONE',  ( 0.0000000000000000000, 0.0000000000000000000, 0.0000000000000000000 ) ) ;
#152 = EDGE_CURVE ( 'NONE', #211, #302, #12, .T. ) ;
#153 = UNCERTAINTY_MEASURE_WITH_UNIT (LENGTH_MEASURE( 1.000000000000000082E-05 ), #171, 'distance_accuracy_value', 'NONE');
#154 = ORIENTED_EDGE ( 'NONE', *, *, #284, .T. ) ;
#155 = DIRECTION ( 'NONE',  ( -1.000000000000000000, -0.0000000000000000000, -0.0000000000000000000 ) ) ;
#156 = EDGE_LOOP ( 'NONE', ( #303, #154 ) ) ;
#157 = SHAPE_DEFINITION_REPRESENTATION ( #74, #220 ) ;
#158 = CLOSED_SHELL ( 'NONE', ( #120, #108, #116, #149, #234, #173, #257, #20, #99 ) ) ;
#159 = CARTESIAN_POINT ( 'NONE',  ( 0.0000000000000000000, 2.449293598294706414E-16, -2.000000000000000000 ) ) ;
#160 = PRODUCT_RELATED_PRODUCT_CATEGORY ( 'part', '', ( #182 ) ) ;
#161 = DIRECTION ( 'NONE',  ( -1.000000000000000000, 0.0000000000000000000, -0.0000000000000000000 ) ) ;
#162 = DIRECTION ( 'NONE',  ( 0.0000000000000000000, 0.0000000000000000000, -1.000000000000000000 ) ) ;
#163 = FACE_BOUND ( 'NONE', #77, .T. ) ;
#164 = ORIENTED_EDGE ( 'NONE', *, *, #265, .F. ) ;
#165 = DIRECTION ( 'NONE',  ( 1.000000000000000000, 0.0000000000000000000, 0.0000000000000000000 ) ) ;
#166 = CARTESIAN_POINT ( 'NONE',  ( 0.0000000000000000000, 0.0000000000000000000, 4.000000000000000000 ) ) ;
#167 = CIRCLE ( 'NONE', #145, 1.515625000000000000 ) ;
#168 = ORIENTED_EDGE ( 'NONE', *, *, #64, .T. ) ;
#169 = ORIENTED_EDGE ( 'NONE', *, *, #212, .T. ) ;
#170 = ORIENTED_EDGE ( 'NONE', *, *, #54, .F. ) ;
#171 =( CONVERSION_BASED_UNIT ( 'INCH', #123 ) LENGTH_UNIT ( ) NAMED_UNIT ( #231 ) );
#172 = LENGTH_MEASURE_WITH_UNIT ( LENGTH_MEASURE( 0.02539999999999999897 ), #262 );
#173 = ADVANCED_FACE ( 'NONE', ( #134, #21 ), #244, .F. ) ;
#174 = APPLICATION_CONTEXT ( 'automotive_design' ) ;
#175 = CIRCLE ( 'NONE', #264, 2.000000000000000000 ) ;
#176 = DIRECTION ( 'NONE',  ( 0.0000000000000000000, 0.0000000000000000000, -1.000000000000000000 ) ) ;
#177 = CYLINDRICAL_SURFACE ( 'NONE', #210, 4.000000000000000000 ) ;
#178 = DIRECTION ( 'NONE',  ( 1.000000000000000000, 0.0000000000000000000, 0.0000000000000000000 ) ) ;
#179 = AXIS2_PLACEMENT_3D ( 'NONE', #82, #178, #176 ) ;
#180 = FACE_OUTER_BOUND ( 'NONE', #93, .T. ) ;
#181 = CARTESIAN_POINT ( 'NONE',  ( 9.375000000000000000, 0.0000000000000000000, 0.0000000000000000000 ) ) ;
#182 = PRODUCT ( '3ACS-8', '3ACS-8', '', ( #282 ) ) ;
#183 = VERTEX_POINT ( 'NONE', #228 ) ;
#184 = AXIS2_PLACEMENT_3D ( 'NONE', #36, #222, #96 ) ;
#185 = CARTESIAN_POINT ( 'NONE',  ( 9.375000000000000000, 0.0000000000000000000, 2.000000000000000000 ) ) ;
#186 = DIRECTION ( 'NONE',  ( -0.0000000000000000000, 0.0000000000000000000, 1.000000000000000000 ) ) ;
#187 = LENGTH_MEASURE_WITH_UNIT ( LENGTH_MEASURE( 0.02539999999999999897 ), #63 );
#188 = COLOUR_RGB ( '',0.7921568627450980005, 0.8196078431372548767, 0.9333333333333333481 ) ;
#189 = ORIENTED_EDGE ( 'NONE', *, *, #54, .T. ) ;
#190 = MANIFOLD_SOLID_BREP ( 'Cut-Extrude1', #158 ) ;
#191 = VERTEX_POINT ( 'NONE', #65 ) ;
#192 = CIRCLE ( 'NONE', #67, 4.000000000000000000 ) ;
#193 = DIRECTION ( 'NONE',  ( 0.0000000000000000000, 0.0000000000000000000, 1.000000000000000000 ) ) ;
#194 = CARTESIAN_POINT ( 'NONE',  ( 0.0000000000000000000, 0.0000000000000000000, 0.0000000000000000000 ) ) ;
#195 = CARTESIAN_POINT ( 'NONE',  ( 0.0000000000000000000, 0.0000000000000000000, 3.999999999999999556 ) ) ;
#196 = DIRECTION ( 'NONE',  ( 0.0000000000000000000, 0.0000000000000000000, 1.000000000000000000 ) ) ;
#197 = AXIS2_PLACEMENT_3D ( 'NONE', #130, #114, #35 ) ;
#198 = CARTESIAN_POINT ( 'NONE',  ( 0.0000000000000000000, 3.999999999999999556, 0.0000000000000000000 ) ) ;
#199 =( CONVERSION_BASED_UNIT ( 'INCH', #187 ) LENGTH_UNIT ( ) NAMED_UNIT ( #23 ) );
#200 = VERTEX_POINT ( 'NONE', #11 ) ;
#201 = DIRECTION ( 'NONE',  ( 0.0000000000000000000, 0.0000000000000000000, 1.000000000000000000 ) ) ;
#202 = LINE ( 'NONE', #95, #276 ) ;
#203 = ORIENTED_EDGE ( 'NONE', *, *, #28, .F. ) ;
#204 = ORIENTED_EDGE ( 'NONE', *, *, #59, .F. ) ;
#205 = SURFACE_SIDE_STYLE ('',( #88 ) ) ;
#206 = ORIENTED_EDGE ( 'NONE', *, *, #59, .T. ) ;
#207 = SURFACE_STYLE_USAGE ( .BOTH. , #205 ) ;
#208 = ORIENTED_EDGE ( 'NONE', *, *, #126, .F. ) ;
#209 =( GEOMETRIC_REPRESENTATION_CONTEXT ( 3 ) GLOBAL_UNCERTAINTY_ASSIGNED_CONTEXT ( ( #84 ) ) GLOBAL_UNIT_ASSIGNED_CONTEXT ( ( #199, #138, #111 ) ) REPRESENTATION_CONTEXT ( 'NONE', 'WORKASPACE' ) );
#210 = AXIS2_PLACEMENT_3D ( 'NONE', #272, #33, #60 ) ;
#211 = VERTEX_POINT ( 'NONE', #105 ) ;
#212 = EDGE_CURVE ( 'NONE', #92, #122, #44, .T. ) ;
#213 = SURFACE_SIDE_STYLE ('',( #288 ) ) ;
#214 = CYLINDRICAL_SURFACE ( 'NONE', #1, 1.515625000000000000 ) ;
#215 = EDGE_CURVE ( 'NONE', #183, #191, #136, .T. ) ;
#216 = AXIS2_PLACEMENT_3D ( 'NONE', #151, #100, #287 ) ;
#217 = DIRECTION ( 'NONE',  ( 0.0000000000000000000, 0.0000000000000000000, -1.000000000000000000 ) ) ;
#218 = PRESENTATION_LAYER_ASSIGNMENT (  '', '', ( #235 ) ) ;
#219 = PRODUCT_DEFINITION ( 'UNKNOWN', '', #46, #58 ) ;
#220 = ADVANCED_BREP_SHAPE_REPRESENTATION ( '3ACS-8', ( #190, #101 ), #283 ) ;
#221 = DIRECTION ( 'NONE',  ( -1.000000000000000000, -0.0000000000000000000, -0.0000000000000000000 ) ) ;
#222 = DIRECTION ( 'NONE',  ( 1.000000000000000000, 0.0000000000000000000, 0.0000000000000000000 ) ) ;
#223 = MECHANICAL_DESIGN_GEOMETRIC_PRESENTATION_REPRESENTATION (  '', ( #240 ), #209 ) ;
#224 = CARTESIAN_POINT ( 'NONE',  ( 0.0000000000000000000, 4.898587196589412829E-16, -4.000000000000000000 ) ) ;
#225 = LINE ( 'NONE', #224, #26 ) ;
#226 = EDGE_LOOP ( 'NONE', ( #274, #48, #22, #251 ) ) ;
#227 = EDGE_LOOP ( 'NONE', ( #142, #279 ) ) ;
#228 = CARTESIAN_POINT ( 'NONE',  ( 3.875000000000000444, 0.0000000000000000000, 1.999999999999999778 ) ) ;
#229 = AXIS2_PLACEMENT_3D ( 'NONE', #299, #249, #186 ) ;
#230 = ORIENTED_EDGE ( 'NONE', *, *, #152, .F. ) ;
#231 = DIMENSIONAL_EXPONENTS ( 1.000000000000000000, 0.0000000000000000000, 0.0000000000000000000, 0.0000000000000000000, 0.0000000000000000000, 0.0000000000000000000, 0.0000000000000000000 ) ;
#232 = VERTEX_POINT ( 'NONE', #241 ) ;
#233 = ORIENTED_EDGE ( 'NONE', *, *, #139, .F. ) ;
#234 = ADVANCED_FACE ( 'NONE', ( #150 ), #239, .T. ) ;
#235 = STYLED_ITEM ( 'NONE', ( #3 ), #220 ) ;
#236 = AXIS2_PLACEMENT_3D ( 'NONE', #260, #143, #51 ) ;
#237 = CARTESIAN_POINT ( 'NONE',  ( 0.0000000000000000000, 1.856105304957707054E-16, 1.515625000000000000 ) ) ;
#238 = PRESENTATION_LAYER_ASSIGNMENT (  '', '', ( #240 ) ) ;
#239 = CYLINDRICAL_SURFACE ( 'NONE', #8, 2.000000000000000000 ) ;
#240 = STYLED_ITEM ( 'NONE', ( #273 ), #190 ) ;
#241 = CARTESIAN_POINT ( 'NONE',  ( 0.0000000000000000000, 0.0000000000000000000, -1.515625000000000000 ) ) ;
#242 = DIRECTION ( 'NONE',  ( 0.0000000000000000000, 0.0000000000000000000, -1.000000000000000000 ) ) ;
#243 = DIRECTION ( 'NONE',  ( 0.0000000000000000000, 0.0000000000000000000, 1.000000000000000000 ) ) ;
#244 = PLANE ( 'NONE',  #229 ) ;
#245 = CARTESIAN_POINT ( 'NONE',  ( 0.0000000000000000000, 0.0000000000000000000, 0.0000000000000000000 ) ) ;
#246 = APPLICATION_PROTOCOL_DEFINITION ( 'draft international standard', 'automotive_design', 1998, #9 ) ;
#247 = AXIS2_PLACEMENT_3D ( 'NONE', #245, #133, #196 ) ;
#248 = FACE_OUTER_BOUND ( 'NONE', #156, .T. ) ;
#249 = DIRECTION ( 'NONE',  ( -1.000000000000000000, 0.0000000000000000000, -0.0000000000000000000 ) ) ;
#250 =( NAMED_UNIT ( * ) SI_UNIT ( $, .STERADIAN. ) SOLID_ANGLE_UNIT ( ) );
#251 = ORIENTED_EDGE ( 'NONE', *, *, #128, .F. ) ;
#252 = CARTESIAN_POINT ( 'NONE',  ( 0.0000000000000000000, 0.0000000000000000000, 0.0000000000000000000 ) ) ;
#253 = DIRECTION ( 'NONE',  ( 1.000000000000000000, -0.0000000000000000000, -0.0000000000000000000 ) ) ;
#254 = AXIS2_PLACEMENT_3D ( 'NONE', #30, #80, #263 ) ;
#255 = CARTESIAN_POINT ( 'NONE',  ( 3.875000000000000444, 0.0000000000000000000, 0.0000000000000000000 ) ) ;
#256 = EDGE_LOOP ( 'NONE', ( #71, #206, #97, #286 ) ) ;
#257 = ADVANCED_FACE ( 'NONE', ( #83 ), #269, .T. ) ;
#258 = DIRECTION ( 'NONE',  ( -1.000000000000000000, -0.0000000000000000000, -0.0000000000000000000 ) ) ;
#259 = EDGE_LOOP ( 'NONE', ( #230, #70 ) ) ;
#260 = CARTESIAN_POINT ( 'NONE',  ( 0.0000000000000000000, 0.0000000000000000000, 0.0000000000000000000 ) ) ;
#261 = FILL_AREA_STYLE ('',( #27 ) ) ;
#262 =( LENGTH_UNIT ( ) NAMED_UNIT ( * ) SI_UNIT ( $, .METRE. ) );
#263 = DIRECTION ( 'NONE',  ( 0.0000000000000000000, 0.0000000000000000000, 1.000000000000000000 ) ) ;
#264 = AXIS2_PLACEMENT_3D ( 'NONE', #14, #221, #201 ) ;
#265 = EDGE_CURVE ( 'NONE', #278, #232, #109, .T. ) ;
#266 = CARTESIAN_POINT ( 'NONE',  ( 3.875000000000000444, 0.0000000000000000000, 0.0000000000000000000 ) ) ;
#267 = DIRECTION ( 'NONE',  ( 0.0000000000000000000, 0.0000000000000000000, 1.000000000000000000 ) ) ;
#268 = CARTESIAN_POINT ( 'NONE',  ( 0.0000000000000000000, 0.0000000000000000000, 0.0000000000000000000 ) ) ;
#269 = CYLINDRICAL_SURFACE ( 'NONE', #144, 4.000000000000000000 ) ;
#270 = UNCERTAINTY_MEASURE_WITH_UNIT (LENGTH_MEASURE( 1.000000000000000082E-05 ), #56, 'distance_accuracy_value', 'NONE');
#271 = AXIS2_PLACEMENT_3D ( 'NONE', #115, #113, #135 ) ;
#272 = CARTESIAN_POINT ( 'NONE',  ( 0.0000000000000000000, 0.0000000000000000000, 0.0000000000000000000 ) ) ;
#273 = PRESENTATION_STYLE_ASSIGNMENT (( #207 ) ) ;
#274 = ORIENTED_EDGE ( 'NONE', *, *, #76, .T. ) ;
#275 = DIRECTION ( 'NONE',  ( -1.000000000000000000, -0.0000000000000000000, -0.0000000000000000000 ) ) ;
#276 = VECTOR ( 'NONE', #253, 39.37007874015748143 ) ;
#277 = ORIENTED_EDGE ( 'NONE', *, *, #126, .T. ) ;
#278 = VERTEX_POINT ( 'NONE', #237 ) ;
#279 = ORIENTED_EDGE ( 'NONE', *, *, #43, .T. ) ;
#280 = DIRECTION ( 'NONE',  ( 0.0000000000000000000, 0.0000000000000000000, 1.000000000000000000 ) ) ;
#281 = EDGE_LOOP ( 'NONE', ( #13, #204 ) ) ;
#282 = PRODUCT_CONTEXT ( 'NONE', #174, 'mechanical' ) ;
#283 =( GEOMETRIC_REPRESENTATION_CONTEXT ( 3 ) GLOBAL_UNCERTAINTY_ASSIGNED_CONTEXT ( ( #270 ) ) GLOBAL_UNIT_ASSIGNED_CONTEXT ( ( #56, #125, #50 ) ) REPRESENTATION_CONTEXT ( 'NONE', 'WORKASPACE' ) );
#284 = EDGE_CURVE ( 'NONE', #200, #118, #72, .T. ) ;
#285 = CIRCLE ( 'NONE', #98, 2.000000000000000000 ) ;
#286 = ORIENTED_EDGE ( 'NONE', *, *, #43, .F. ) ;
#287 = DIRECTION ( 'NONE',  ( 0.0000000000000000000, 0.0000000000000000000, -1.000000000000000000 ) ) ;
#288 = SURFACE_STYLE_FILL_AREA ( #261 ) ;
#289 = CYLINDRICAL_SURFACE ( 'NONE', #236, 1.515625000000000000 ) ;
#290 = AXIS2_PLACEMENT_3D ( 'NONE', #266, #57, #106 ) ;
#291 = MECHANICAL_DESIGN_GEOMETRIC_PRESENTATION_REPRESENTATION (  '', ( #235 ), #103 ) ;
#292 = FACE_OUTER_BOUND ( 'NONE', #117, .T. ) ;
#293 = CARTESIAN_POINT ( 'NONE',  ( 0.0000000000000000000, 0.0000000000000000000, 0.0000000000000000000 ) ) ;
#294 = CARTESIAN_POINT ( 'NONE',  ( 9.375000000000000000, 2.449293598294706414E-16, -2.000000000000000000 ) ) ;
#295 = AXIS2_PLACEMENT_3D ( 'NONE', #198, #91, #242 ) ;
#296 = FILL_AREA_STYLE ('',( #40 ) ) ;
#297 = EDGE_CURVE ( 'NONE', #232, #92, #6, .T. ) ;
#298 = DIRECTION ( 'NONE',  ( 1.000000000000000000, 0.0000000000000000000, 0.0000000000000000000 ) ) ;
#299 = CARTESIAN_POINT ( 'NONE',  ( 3.875000000000000444, 1.999999999999999778, 0.0000000000000000000 ) ) ;
#300 = EDGE_LOOP ( 'NONE', ( #170, #24, #277, #16 ) ) ;
#301 = ORIENTED_EDGE ( 'NONE', *, *, #265, .T. ) ;
#302 = VERTEX_POINT ( 'NONE', #102 ) ;
#303 = ORIENTED_EDGE ( 'NONE', *, *, #28, .T. ) ;
ENDSEC;
END-ISO-10303-21;
