ISO-10303-21;
HEADER;
FILE_DESCRIPTION (( 'STEP AP214' ),
    '1' );
FILE_NAME ('3ACS-6.STEP',
    '2020-10-26T23:40:45',
    ( '' ),
    ( '' ),
    'SwSTEP 2.0',
    'SolidWorks 2019',
    '' );
FILE_SCHEMA (( 'AUTOMOTIVE_DESIGN' ));
ENDSEC;

DATA;
#1 = ORIENTED_EDGE ( 'NONE', *, *, #272, .F. ) ;
#2 = CARTESIAN_POINT ( 'NONE',  ( 0.0000000000000000000, 1.856105304957707054E-16, 1.515625000000000000 ) ) ;
#3 = DIRECTION ( 'NONE',  ( 0.0000000000000000000, 0.0000000000000000000, -1.000000000000000000 ) ) ;
#4 = ORIENTED_EDGE ( 'NONE', *, *, #58, .F. ) ;
#5 = ORIENTED_EDGE ( 'NONE', *, *, #269, .T. ) ;
#6 = STYLED_ITEM ( 'NONE', ( #288 ), #34 ) ;
#7 =( LENGTH_UNIT ( ) NAMED_UNIT ( * ) SI_UNIT ( $, .METRE. ) );
#8 = VECTOR ( 'NONE', #76, 39.37007874015748143 ) ;
#9 = DIRECTION ( 'NONE',  ( 0.0000000000000000000, 0.0000000000000000000, 1.000000000000000000 ) ) ;
#10 = SHAPE_DEFINITION_REPRESENTATION ( #291, #97 ) ;
#11 = EDGE_CURVE ( 'NONE', #218, #67, #123, .T. ) ;
#12 = DIRECTION ( 'NONE',  ( -0.0000000000000000000, 0.0000000000000000000, 1.000000000000000000 ) ) ;
#13 = ORIENTED_EDGE ( 'NONE', *, *, #133, .T. ) ;
#14 = DIRECTION ( 'NONE',  ( 0.0000000000000000000, 0.0000000000000000000, 1.000000000000000000 ) ) ;
#15 = ORIENTED_EDGE ( 'NONE', *, *, #25, .T. ) ;
#16 = DIRECTION ( 'NONE',  ( -1.000000000000000000, -0.0000000000000000000, -0.0000000000000000000 ) ) ;
#17 = APPLICATION_CONTEXT ( 'automotive_design' ) ;
#18 = EDGE_CURVE ( 'NONE', #252, #289, #124, .T. ) ;
#19 = UNCERTAINTY_MEASURE_WITH_UNIT (LENGTH_MEASURE( 1.000000000000000082E-05 ), #243, 'distance_accuracy_value', 'NONE');
#20 = ORIENTED_EDGE ( 'NONE', *, *, #219, .T. ) ;
#21 = DIRECTION ( 'NONE',  ( 1.000000000000000000, 0.0000000000000000000, 0.0000000000000000000 ) ) ;
#22 = EDGE_LOOP ( 'NONE', ( #221, #15 ) ) ;
#23 = CYLINDRICAL_SURFACE ( 'NONE', #28, 1.515625000000000000 ) ;
#24 = CIRCLE ( 'NONE', #63, 2.999999999999999112 ) ;
#25 = EDGE_CURVE ( 'NONE', #60, #171, #24, .T. ) ;
#26 = SURFACE_SIDE_STYLE ('',( #279 ) ) ;
#27 = LINE ( 'NONE', #203, #206 ) ;
#28 = AXIS2_PLACEMENT_3D ( 'NONE', #50, #157, #64 ) ;
#29 = CARTESIAN_POINT ( 'NONE',  ( 3.875000000000000444, 2.449293598294705921E-16, -1.999999999999999778 ) ) ;
#30 = DIRECTION ( 'NONE',  ( 1.000000000000000000, 0.0000000000000000000, 0.0000000000000000000 ) ) ;
#31 = DIRECTION ( 'NONE',  ( 0.0000000000000000000, 0.0000000000000000000, 1.000000000000000000 ) ) ;
#32 = AXIS2_PLACEMENT_3D ( 'NONE', #82, #248, #196 ) ;
#33 = CARTESIAN_POINT ( 'NONE',  ( 0.0000000000000000000, 1.856105304957707054E-16, 1.515625000000000000 ) ) ;
#34 = MANIFOLD_SOLID_BREP ( 'Cut-Extrude1', #169 ) ;
#35 = FACE_BOUND ( 'NONE', #57, .T. ) ;
#36 = EDGE_LOOP ( 'NONE', ( #80, #275 ) ) ;
#37 = FILL_AREA_STYLE ('',( #167 ) ) ;
#38 = ORIENTED_EDGE ( 'NONE', *, *, #173, .F. ) ;
#39 = DIRECTION ( 'NONE',  ( 1.000000000000000000, -0.0000000000000000000, -0.0000000000000000000 ) ) ;
#40 = PRODUCT_CONTEXT ( 'NONE', #17, 'mechanical' ) ;
#41 = VECTOR ( 'NONE', #146, 39.37007874015748143 ) ;
#42 = EDGE_CURVE ( 'NONE', #108, #67, #81, .T. ) ;
#43 = AXIS2_PLACEMENT_3D ( 'NONE', #237, #282, #284 ) ;
#44 = DIRECTION ( 'NONE',  ( 0.0000000000000000000, 0.0000000000000000000, -1.000000000000000000 ) ) ;
#45 = ADVANCED_FACE ( 'NONE', ( #226, #201 ), #61, .F. ) ;
#46 = CARTESIAN_POINT ( 'NONE',  ( 0.0000000000000000000, 0.0000000000000000000, 0.0000000000000000000 ) ) ;
#47 = PRESENTATION_LAYER_ASSIGNMENT (  '', '', ( #6 ) ) ;
#48 =( NAMED_UNIT ( * ) SI_UNIT ( $, .STERADIAN. ) SOLID_ANGLE_UNIT ( ) );
#49 = DIRECTION ( 'NONE',  ( 0.0000000000000000000, 0.0000000000000000000, 1.000000000000000000 ) ) ;
#50 = CARTESIAN_POINT ( 'NONE',  ( 0.0000000000000000000, 0.0000000000000000000, 0.0000000000000000000 ) ) ;
#51 = LINE ( 'NONE', #184, #163 ) ;
#52 = CIRCLE ( 'NONE', #43, 2.999999999999999556 ) ;
#53 = CARTESIAN_POINT ( 'NONE',  ( 0.0000000000000000000, 0.0000000000000000000, 0.0000000000000000000 ) ) ;
#54 = ADVANCED_FACE ( 'NONE', ( #223 ), #84, .T. ) ;
#55 = CARTESIAN_POINT ( 'NONE',  ( 9.375000000000000000, 0.0000000000000000000, 0.0000000000000000000 ) ) ;
#56 = CARTESIAN_POINT ( 'NONE',  ( 0.0000000000000000000, 2.999999999999999112, 0.0000000000000000000 ) ) ;
#57 = EDGE_LOOP ( 'NONE', ( #283, #91 ) ) ;
#58 = EDGE_CURVE ( 'NONE', #268, #114, #62, .T. ) ;
#59 = DIRECTION ( 'NONE',  ( -1.000000000000000000, -0.0000000000000000000, -0.0000000000000000000 ) ) ;
#60 = VERTEX_POINT ( 'NONE', #106 ) ;
#61 = PLANE ( 'NONE',  #213 ) ;
#62 = LINE ( 'NONE', #149, #208 ) ;
#63 = AXIS2_PLACEMENT_3D ( 'NONE', #242, #77, #147 ) ;
#64 = DIRECTION ( 'NONE',  ( 0.0000000000000000000, 0.0000000000000000000, -1.000000000000000000 ) ) ;
#65 = DIRECTION ( 'NONE',  ( 0.0000000000000000000, 0.0000000000000000000, 1.000000000000000000 ) ) ;
#66 = UNCERTAINTY_MEASURE_WITH_UNIT (LENGTH_MEASURE( 1.000000000000000082E-05 ), #230, 'distance_accuracy_value', 'NONE');
#67 = VERTEX_POINT ( 'NONE', #125 ) ;
#68 = CARTESIAN_POINT ( 'NONE',  ( 9.375000000000000000, 0.0000000000000000000, 2.000000000000000000 ) ) ;
#69 = AXIS2_PLACEMENT_3D ( 'NONE', #182, #130, #299 ) ;
#70 = VERTEX_POINT ( 'NONE', #198 ) ;
#71 = CARTESIAN_POINT ( 'NONE',  ( 0.0000000000000000000, 0.0000000000000000000, 0.0000000000000000000 ) ) ;
#72 = PRODUCT_RELATED_PRODUCT_CATEGORY ( 'part', '', ( #200 ) ) ;
#73 =( CONVERSION_BASED_UNIT ( 'INCH', #280 ) LENGTH_UNIT ( ) NAMED_UNIT ( #141 ) );
#74 = LINE ( 'NONE', #118, #8 ) ;
#75 = ORIENTED_EDGE ( 'NONE', *, *, #168, .F. ) ;
#76 = DIRECTION ( 'NONE',  ( -1.000000000000000000, -0.0000000000000000000, -0.0000000000000000000 ) ) ;
#77 = DIRECTION ( 'NONE',  ( -1.000000000000000000, -0.0000000000000000000, -0.0000000000000000000 ) ) ;
#78 = DIRECTION ( 'NONE',  ( 0.0000000000000000000, 0.0000000000000000000, 1.000000000000000000 ) ) ;
#79 = ORIENTED_EDGE ( 'NONE', *, *, #225, .T. ) ;
#80 = ORIENTED_EDGE ( 'NONE', *, *, #173, .T. ) ;
#81 = CIRCLE ( 'NONE', #153, 1.999999999999999778 ) ;
#82 = CARTESIAN_POINT ( 'NONE',  ( 0.0000000000000000000, 0.0000000000000000000, 0.0000000000000000000 ) ) ;
#83 = AXIS2_PLACEMENT_3D ( 'NONE', #257, #110, #207 ) ;
#84 = CYLINDRICAL_SURFACE ( 'NONE', #302, 2.999999999999999556 ) ;
#85 = FILL_AREA_STYLE_COLOUR ( '', #127 ) ;
#86 = DIRECTION ( 'NONE',  ( -1.000000000000000000, -0.0000000000000000000, -0.0000000000000000000 ) ) ;
#87 = PRODUCT_DEFINITION_FORMATION_WITH_SPECIFIED_SOURCE ( 'ANY', '', #200, .NOT_KNOWN. ) ;
#88 = ORIENTED_EDGE ( 'NONE', *, *, #42, .F. ) ;
#89 = DIRECTION ( 'NONE',  ( 1.000000000000000000, 0.0000000000000000000, 0.0000000000000000000 ) ) ;
#90 = DIRECTION ( 'NONE',  ( -1.000000000000000000, -0.0000000000000000000, -0.0000000000000000000 ) ) ;
#91 = ORIENTED_EDGE ( 'NONE', *, *, #240, .T. ) ;
#92 = DIRECTION ( 'NONE',  ( 1.000000000000000000, 0.0000000000000000000, 0.0000000000000000000 ) ) ;
#93 = AXIS2_PLACEMENT_3D ( 'NONE', #55, #143, #78 ) ;
#94 = CARTESIAN_POINT ( 'NONE',  ( 0.0000000000000000000, 0.0000000000000000000, 0.0000000000000000000 ) ) ;
#95 = MECHANICAL_DESIGN_GEOMETRIC_PRESENTATION_REPRESENTATION (  '', ( #245 ), #172 ) ;
#96 = CARTESIAN_POINT ( 'NONE',  ( 0.0000000000000000000, 0.0000000000000000000, 0.0000000000000000000 ) ) ;
#97 = ADVANCED_BREP_SHAPE_REPRESENTATION ( '3ACS-6', ( #34, #117 ), #139 ) ;
#98 = ADVANCED_FACE ( 'NONE', ( #222 ), #293, .F. ) ;
#99 = VERTEX_POINT ( 'NONE', #290 ) ;
#100 = CARTESIAN_POINT ( 'NONE',  ( 0.0000000000000000000, 0.0000000000000000000, 2.000000000000000000 ) ) ;
#101 = DIRECTION ( 'NONE',  ( -1.000000000000000000, -0.0000000000000000000, -0.0000000000000000000 ) ) ;
#102 = ORIENTED_EDGE ( 'NONE', *, *, #229, .F. ) ;
#103 = DIMENSIONAL_EXPONENTS ( 1.000000000000000000, 0.0000000000000000000, 0.0000000000000000000, 0.0000000000000000000, 0.0000000000000000000, 0.0000000000000000000, 0.0000000000000000000 ) ;
#104 = SURFACE_STYLE_FILL_AREA ( #37 ) ;
#105 = COLOUR_RGB ( '',0.7921568627450980005, 0.8196078431372548767, 0.9333333333333333481 ) ;
#106 = CARTESIAN_POINT ( 'NONE',  ( 0.0000000000000000000, 3.673940397442058389E-16, -2.999999999999999112 ) ) ;
#107 = CYLINDRICAL_SURFACE ( 'NONE', #270, 2.999999999999999556 ) ;
#108 = VERTEX_POINT ( 'NONE', #29 ) ;
#109 =( NAMED_UNIT ( * ) SI_UNIT ( $, .STERADIAN. ) SOLID_ANGLE_UNIT ( ) );
#110 = DIRECTION ( 'NONE',  ( -1.000000000000000000, -0.0000000000000000000, -0.0000000000000000000 ) ) ;
#111 = CIRCLE ( 'NONE', #251, 2.999999999999999112 ) ;
#112 = PRESENTATION_LAYER_ASSIGNMENT (  '', '', ( #245 ) ) ;
#113 = CARTESIAN_POINT ( 'NONE',  ( 3.875000000000000444, 0.0000000000000000000, 2.999999999999999556 ) ) ;
#114 = VERTEX_POINT ( 'NONE', #165 ) ;
#115 = SURFACE_STYLE_USAGE ( .BOTH. , #26 ) ;
#116 = AXIS2_PLACEMENT_3D ( 'NONE', #281, #161, #260 ) ;
#117 = AXIS2_PLACEMENT_3D ( 'NONE', #298, #181, #89 ) ;
#118 = CARTESIAN_POINT ( 'NONE',  ( 0.0000000000000000000, 0.0000000000000000000, 2.999999999999999556 ) ) ;
#119 = SURFACE_SIDE_STYLE ('',( #104 ) ) ;
#120 = FACE_OUTER_BOUND ( 'NONE', #150, .T. ) ;
#121 = FACE_OUTER_BOUND ( 'NONE', #22, .T. ) ;
#122 = ORIENTED_EDGE ( 'NONE', *, *, #133, .F. ) ;
#123 = LINE ( 'NONE', #100, #224 ) ;
#124 = LINE ( 'NONE', #33, #41 ) ;
#125 = CARTESIAN_POINT ( 'NONE',  ( 3.875000000000000444, 0.0000000000000000000, 1.999999999999999778 ) ) ;
#126 = ADVANCED_FACE ( 'NONE', ( #120, #286 ), #188, .F. ) ;
#127 = COLOUR_RGB ( '',0.7921568627450980005, 0.8196078431372548767, 0.9333333333333333481 ) ;
#128 = CARTESIAN_POINT ( 'NONE',  ( 9.375000000000000000, 0.0000000000000000000, 0.0000000000000000000 ) ) ;
#129 =( NAMED_UNIT ( * ) SI_UNIT ( $, .STERADIAN. ) SOLID_ANGLE_UNIT ( ) );
#130 = DIRECTION ( 'NONE',  ( -1.000000000000000000, -0.0000000000000000000, -0.0000000000000000000 ) ) ;
#131 = UNCERTAINTY_MEASURE_WITH_UNIT (LENGTH_MEASURE( 1.000000000000000082E-05 ), #73, 'distance_accuracy_value', 'NONE');
#132 = DIRECTION ( 'NONE',  ( 0.0000000000000000000, 0.0000000000000000000, 1.000000000000000000 ) ) ;
#133 = EDGE_CURVE ( 'NONE', #114, #289, #292, .T. ) ;
#134 = ORIENTED_EDGE ( 'NONE', *, *, #229, .T. ) ;
#135 = DIRECTION ( 'NONE',  ( -1.000000000000000000, -0.0000000000000000000, -0.0000000000000000000 ) ) ;
#136 = DIRECTION ( 'NONE',  ( 0.0000000000000000000, 0.0000000000000000000, -1.000000000000000000 ) ) ;
#137 = EDGE_CURVE ( 'NONE', #218, #70, #177, .T. ) ;
#138 = DIMENSIONAL_EXPONENTS ( 1.000000000000000000, 0.0000000000000000000, 0.0000000000000000000, 0.0000000000000000000, 0.0000000000000000000, 0.0000000000000000000, 0.0000000000000000000 ) ;
#139 =( GEOMETRIC_REPRESENTATION_CONTEXT ( 3 ) GLOBAL_UNCERTAINTY_ASSIGNED_CONTEXT ( ( #66 ) ) GLOBAL_UNIT_ASSIGNED_CONTEXT ( ( #230, #202, #109 ) ) REPRESENTATION_CONTEXT ( 'NONE', 'WORKASPACE' ) );
#140 = CARTESIAN_POINT ( 'NONE',  ( 9.375000000000000000, 0.0000000000000000000, 0.0000000000000000000 ) ) ;
#141 = DIMENSIONAL_EXPONENTS ( 1.000000000000000000, 0.0000000000000000000, 0.0000000000000000000, 0.0000000000000000000, 0.0000000000000000000, 0.0000000000000000000, 0.0000000000000000000 ) ;
#142 = ORIENTED_EDGE ( 'NONE', *, *, #58, .T. ) ;
#143 = DIRECTION ( 'NONE',  ( -1.000000000000000000, -0.0000000000000000000, -0.0000000000000000000 ) ) ;
#144 = AXIS2_PLACEMENT_3D ( 'NONE', #96, #21, #44 ) ;
#145 = ORIENTED_EDGE ( 'NONE', *, *, #269, .F. ) ;
#146 = DIRECTION ( 'NONE',  ( 1.000000000000000000, -0.0000000000000000000, -0.0000000000000000000 ) ) ;
#147 = DIRECTION ( 'NONE',  ( 0.0000000000000000000, 0.0000000000000000000, 1.000000000000000000 ) ) ;
#148 = ORIENTED_EDGE ( 'NONE', *, *, #259, .F. ) ;
#149 = CARTESIAN_POINT ( 'NONE',  ( 0.0000000000000000000, 0.0000000000000000000, -1.515625000000000000 ) ) ;
#150 = EDGE_LOOP ( 'NONE', ( #145, #300 ) ) ;
#151 = CYLINDRICAL_SURFACE ( 'NONE', #261, 2.000000000000000000 ) ;
#152 = ORIENTED_EDGE ( 'NONE', *, *, #25, .F. ) ;
#153 = AXIS2_PLACEMENT_3D ( 'NONE', #267, #271, #9 ) ;
#154 = FACE_OUTER_BOUND ( 'NONE', #174, .T. ) ;
#155 = APPLICATION_CONTEXT ( 'automotive_design' ) ;
#156 = ORIENTED_EDGE ( 'NONE', *, *, #250, .F. ) ;
#157 = DIRECTION ( 'NONE',  ( 1.000000000000000000, -0.0000000000000000000, -0.0000000000000000000 ) ) ;
#158 = PRESENTATION_STYLE_ASSIGNMENT (( #115 ) ) ;
#159 = FACE_OUTER_BOUND ( 'NONE', #228, .T. ) ;
#160 = ADVANCED_FACE ( 'NONE', ( #154 ), #211, .T. ) ;
#161 = DIRECTION ( 'NONE',  ( -1.000000000000000000, 0.0000000000000000000, -0.0000000000000000000 ) ) ;
#162 =( LENGTH_UNIT ( ) NAMED_UNIT ( * ) SI_UNIT ( $, .METRE. ) );
#163 = VECTOR ( 'NONE', #135, 39.37007874015748143 ) ;
#164 = EDGE_LOOP ( 'NONE', ( #287, #75, #142, #13 ) ) ;
#165 = CARTESIAN_POINT ( 'NONE',  ( 9.375000000000000000, 0.0000000000000000000, -1.515625000000000000 ) ) ;
#166 = CARTESIAN_POINT ( 'NONE',  ( 9.375000000000000000, 1.856105304957707054E-16, 1.515625000000000000 ) ) ;
#167 = FILL_AREA_STYLE_COLOUR ( '', #105 ) ;
#168 = EDGE_CURVE ( 'NONE', #268, #252, #183, .T. ) ;
#169 = CLOSED_SHELL ( 'NONE', ( #185, #54, #204, #45, #160, #126, #194, #256, #98 ) ) ;
#170 = CIRCLE ( 'NONE', #175, 1.515625000000000000 ) ;
#171 = VERTEX_POINT ( 'NONE', #273 ) ;
#172 =( GEOMETRIC_REPRESENTATION_CONTEXT ( 3 ) GLOBAL_UNCERTAINTY_ASSIGNED_CONTEXT ( ( #131 ) ) GLOBAL_UNIT_ASSIGNED_CONTEXT ( ( #73, #209, #48 ) ) REPRESENTATION_CONTEXT ( 'NONE', 'WORKASPACE' ) );
#173 = EDGE_CURVE ( 'NONE', #67, #108, #258, .T. ) ;
#174 = EDGE_LOOP ( 'NONE', ( #102, #285, #266, #88 ) ) ;
#175 = AXIS2_PLACEMENT_3D ( 'NONE', #301, #92, #253 ) ;
#176 = DIRECTION ( 'NONE',  ( 0.0000000000000000000, 0.0000000000000000000, 1.000000000000000000 ) ) ;
#177 = CIRCLE ( 'NONE', #93, 2.000000000000000000 ) ;
#178 = CARTESIAN_POINT ( 'NONE',  ( 0.0000000000000000000, 0.0000000000000000000, 0.0000000000000000000 ) ) ;
#179 = CARTESIAN_POINT ( 'NONE',  ( 9.375000000000000000, 0.0000000000000000000, 0.0000000000000000000 ) ) ;
#180 = EDGE_LOOP ( 'NONE', ( #231, #134, #38, #262 ) ) ;
#181 = DIRECTION ( 'NONE',  ( 0.0000000000000000000, 0.0000000000000000000, 1.000000000000000000 ) ) ;
#182 = CARTESIAN_POINT ( 'NONE',  ( 3.875000000000000444, 0.0000000000000000000, 0.0000000000000000000 ) ) ;
#183 = CIRCLE ( 'NONE', #144, 1.515625000000000000 ) ;
#184 = CARTESIAN_POINT ( 'NONE',  ( 0.0000000000000000000, 2.449293598294706414E-16, -2.000000000000000000 ) ) ;
#185 = ADVANCED_FACE ( 'NONE', ( #159 ), #23, .F. ) ;
#186 = DIRECTION ( 'NONE',  ( 1.000000000000000000, 0.0000000000000000000, 0.0000000000000000000 ) ) ;
#187 = CIRCLE ( 'NONE', #199, 1.515625000000000000 ) ;
#188 = PLANE ( 'NONE',  #116 ) ;
#189 = CARTESIAN_POINT ( 'NONE',  ( 0.0000000000000000000, 0.0000000000000000000, -1.515625000000000000 ) ) ;
#190 = EDGE_LOOP ( 'NONE', ( #297, #156 ) ) ;
#191 = PLANE ( 'NONE',  #227 ) ;
#192 = ORIENTED_EDGE ( 'NONE', *, *, #272, .T. ) ;
#193 = SURFACE_STYLE_USAGE ( .BOTH. , #119 ) ;
#194 = ADVANCED_FACE ( 'NONE', ( #276 ), #107, .T. ) ;
#195 = LENGTH_MEASURE_WITH_UNIT ( LENGTH_MEASURE( 0.02539999999999999897 ), #7 );
#196 = DIRECTION ( 'NONE',  ( 0.0000000000000000000, 0.0000000000000000000, -1.000000000000000000 ) ) ;
#197 = AXIS2_PLACEMENT_3D ( 'NONE', #71, #255, #14 ) ;
#198 = CARTESIAN_POINT ( 'NONE',  ( 9.375000000000000000, 2.449293598294706414E-16, -2.000000000000000000 ) ) ;
#199 = AXIS2_PLACEMENT_3D ( 'NONE', #94, #186, #136 ) ;
#200 = PRODUCT ( '3ACS-6', '3ACS-6', '', ( #40 ) ) ;
#201 = FACE_OUTER_BOUND ( 'NONE', #190, .T. ) ;
#202 =( NAMED_UNIT ( * ) PLANE_ANGLE_UNIT ( ) SI_UNIT ( $, .RADIAN. ) );
#203 = CARTESIAN_POINT ( 'NONE',  ( 0.0000000000000000000, 3.673940397442058882E-16, -2.999999999999999556 ) ) ;
#204 = ADVANCED_FACE ( 'NONE', ( #234 ), #151, .T. ) ;
#205 = VERTEX_POINT ( 'NONE', #113 ) ;
#206 = VECTOR ( 'NONE', #86, 39.37007874015748143 ) ;
#207 = DIRECTION ( 'NONE',  ( 0.0000000000000000000, 0.0000000000000000000, 1.000000000000000000 ) ) ;
#208 = VECTOR ( 'NONE', #39, 39.37007874015748143 ) ;
#209 =( NAMED_UNIT ( * ) PLANE_ANGLE_UNIT ( ) SI_UNIT ( $, .RADIAN. ) );
#210 = FILL_AREA_STYLE ('',( #85 ) ) ;
#211 = CYLINDRICAL_SURFACE ( 'NONE', #197, 2.000000000000000000 ) ;
#212 = EDGE_LOOP ( 'NONE', ( #5, #239, #148, #1 ) ) ;
#213 = AXIS2_PLACEMENT_3D ( 'NONE', #128, #295, #12 ) ;
#214 = LENGTH_MEASURE_WITH_UNIT ( LENGTH_MEASURE( 0.02539999999999999897 ), #162 );
#215 = PRODUCT_DEFINITION ( 'UNKNOWN', '', #87, #296 ) ;
#216 =( NAMED_UNIT ( * ) PLANE_ANGLE_UNIT ( ) SI_UNIT ( $, .RADIAN. ) );
#217 = DIRECTION ( 'NONE',  ( 1.000000000000000000, 0.0000000000000000000, 0.0000000000000000000 ) ) ;
#218 = VERTEX_POINT ( 'NONE', #68 ) ;
#219 = EDGE_CURVE ( 'NONE', #99, #205, #241, .T. ) ;
#220 = ORIENTED_EDGE ( 'NONE', *, *, #18, .T. ) ;
#221 = ORIENTED_EDGE ( 'NONE', *, *, #259, .T. ) ;
#222 = FACE_OUTER_BOUND ( 'NONE', #164, .T. ) ;
#223 = FACE_OUTER_BOUND ( 'NONE', #212, .T. ) ;
#224 = VECTOR ( 'NONE', #59, 39.37007874015748143 ) ;
#225 = EDGE_CURVE ( 'NONE', #289, #114, #170, .T. ) ;
#226 = FACE_BOUND ( 'NONE', #254, .T. ) ;
#227 = AXIS2_PLACEMENT_3D ( 'NONE', #56, #217, #3 ) ;
#228 = EDGE_LOOP ( 'NONE', ( #232, #220, #79, #4 ) ) ;
#229 = EDGE_CURVE ( 'NONE', #70, #108, #51, .T. ) ;
#230 =( CONVERSION_BASED_UNIT ( 'INCH', #214 ) LENGTH_UNIT ( ) NAMED_UNIT ( #103 ) );
#231 = ORIENTED_EDGE ( 'NONE', *, *, #137, .T. ) ;
#232 = ORIENTED_EDGE ( 'NONE', *, *, #240, .F. ) ;
#233 =( LENGTH_UNIT ( ) NAMED_UNIT ( * ) SI_UNIT ( $, .METRE. ) );
#234 = FACE_OUTER_BOUND ( 'NONE', #180, .T. ) ;
#235 =( GEOMETRIC_REPRESENTATION_CONTEXT ( 3 ) GLOBAL_UNCERTAINTY_ASSIGNED_CONTEXT ( ( #19 ) ) GLOBAL_UNIT_ASSIGNED_CONTEXT ( ( #243, #216, #129 ) ) REPRESENTATION_CONTEXT ( 'NONE', 'WORKASPACE' ) );
#236 = AXIS2_PLACEMENT_3D ( 'NONE', #179, #274, #65 ) ;
#237 = CARTESIAN_POINT ( 'NONE',  ( 3.875000000000000444, 0.0000000000000000000, 0.0000000000000000000 ) ) ;
#238 = ORIENTED_EDGE ( 'NONE', *, *, #246, .F. ) ;
#239 = ORIENTED_EDGE ( 'NONE', *, *, #246, .T. ) ;
#240 = EDGE_CURVE ( 'NONE', #252, #268, #187, .T. ) ;
#241 = CIRCLE ( 'NONE', #83, 2.999999999999999556 ) ;
#242 = CARTESIAN_POINT ( 'NONE',  ( 0.0000000000000000000, 0.0000000000000000000, 0.0000000000000000000 ) ) ;
#243 =( CONVERSION_BASED_UNIT ( 'INCH', #195 ) LENGTH_UNIT ( ) NAMED_UNIT ( #138 ) );
#244 = CIRCLE ( 'NONE', #236, 2.000000000000000000 ) ;
#245 = STYLED_ITEM ( 'NONE', ( #158 ), #97 ) ;
#246 = EDGE_CURVE ( 'NONE', #99, #60, #27, .T. ) ;
#247 = APPLICATION_PROTOCOL_DEFINITION ( 'draft international standard', 'automotive_design', 1998, #17 ) ;
#248 = DIRECTION ( 'NONE',  ( 1.000000000000000000, -0.0000000000000000000, -0.0000000000000000000 ) ) ;
#249 = APPLICATION_PROTOCOL_DEFINITION ( 'draft international standard', 'automotive_design', 1998, #155 ) ;
#250 = EDGE_CURVE ( 'NONE', #70, #218, #244, .T. ) ;
#251 = AXIS2_PLACEMENT_3D ( 'NONE', #53, #101, #31 ) ;
#252 = VERTEX_POINT ( 'NONE', #2 ) ;
#253 = DIRECTION ( 'NONE',  ( 0.0000000000000000000, 0.0000000000000000000, -1.000000000000000000 ) ) ;
#254 = EDGE_LOOP ( 'NONE', ( #122, #264 ) ) ;
#255 = DIRECTION ( 'NONE',  ( -1.000000000000000000, -0.0000000000000000000, -0.0000000000000000000 ) ) ;
#256 = ADVANCED_FACE ( 'NONE', ( #35, #121 ), #191, .F. ) ;
#257 = CARTESIAN_POINT ( 'NONE',  ( 3.875000000000000444, 0.0000000000000000000, 0.0000000000000000000 ) ) ;
#258 = CIRCLE ( 'NONE', #69, 1.999999999999999778 ) ;
#259 = EDGE_CURVE ( 'NONE', #171, #60, #111, .T. ) ;
#260 = DIRECTION ( 'NONE',  ( -0.0000000000000000000, 0.0000000000000000000, 1.000000000000000000 ) ) ;
#261 = AXIS2_PLACEMENT_3D ( 'NONE', #303, #16, #49 ) ;
#262 = ORIENTED_EDGE ( 'NONE', *, *, #11, .F. ) ;
#263 = DIRECTION ( 'NONE',  ( 0.0000000000000000000, 0.0000000000000000000, -1.000000000000000000 ) ) ;
#264 = ORIENTED_EDGE ( 'NONE', *, *, #225, .F. ) ;
#265 = MECHANICAL_DESIGN_GEOMETRIC_PRESENTATION_REPRESENTATION (  '', ( #6 ), #235 ) ;
#266 = ORIENTED_EDGE ( 'NONE', *, *, #11, .T. ) ;
#267 = CARTESIAN_POINT ( 'NONE',  ( 3.875000000000000444, 0.0000000000000000000, 0.0000000000000000000 ) ) ;
#268 = VERTEX_POINT ( 'NONE', #189 ) ;
#269 = EDGE_CURVE ( 'NONE', #205, #99, #52, .T. ) ;
#270 = AXIS2_PLACEMENT_3D ( 'NONE', #46, #90, #132 ) ;
#271 = DIRECTION ( 'NONE',  ( -1.000000000000000000, -0.0000000000000000000, -0.0000000000000000000 ) ) ;
#272 = EDGE_CURVE ( 'NONE', #205, #171, #74, .T. ) ;
#273 = CARTESIAN_POINT ( 'NONE',  ( 0.0000000000000000000, 0.0000000000000000000, 2.999999999999999112 ) ) ;
#274 = DIRECTION ( 'NONE',  ( -1.000000000000000000, -0.0000000000000000000, -0.0000000000000000000 ) ) ;
#275 = ORIENTED_EDGE ( 'NONE', *, *, #42, .T. ) ;
#276 = FACE_OUTER_BOUND ( 'NONE', #278, .T. ) ;
#277 = AXIS2_PLACEMENT_3D ( 'NONE', #140, #30, #263 ) ;
#278 = EDGE_LOOP ( 'NONE', ( #238, #20, #192, #152 ) ) ;
#279 = SURFACE_STYLE_FILL_AREA ( #210 ) ;
#280 = LENGTH_MEASURE_WITH_UNIT ( LENGTH_MEASURE( 0.02539999999999999897 ), #233 );
#281 = CARTESIAN_POINT ( 'NONE',  ( 3.875000000000000444, 1.999999999999999778, 0.0000000000000000000 ) ) ;
#282 = DIRECTION ( 'NONE',  ( -1.000000000000000000, -0.0000000000000000000, -0.0000000000000000000 ) ) ;
#283 = ORIENTED_EDGE ( 'NONE', *, *, #168, .T. ) ;
#284 = DIRECTION ( 'NONE',  ( 0.0000000000000000000, 0.0000000000000000000, 1.000000000000000000 ) ) ;
#285 = ORIENTED_EDGE ( 'NONE', *, *, #250, .T. ) ;
#286 = FACE_BOUND ( 'NONE', #36, .T. ) ;
#287 = ORIENTED_EDGE ( 'NONE', *, *, #18, .F. ) ;
#288 = PRESENTATION_STYLE_ASSIGNMENT (( #193 ) ) ;
#289 = VERTEX_POINT ( 'NONE', #166 ) ;
#290 = CARTESIAN_POINT ( 'NONE',  ( 3.875000000000000444, 3.673940397442058882E-16, -2.999999999999999556 ) ) ;
#291 = PRODUCT_DEFINITION_SHAPE ( 'NONE', 'NONE',  #215 ) ;
#292 = CIRCLE ( 'NONE', #277, 1.515625000000000000 ) ;
#293 = CYLINDRICAL_SURFACE ( 'NONE', #32, 1.515625000000000000 ) ;
#294 = DIRECTION ( 'NONE',  ( -1.000000000000000000, -0.0000000000000000000, -0.0000000000000000000 ) ) ;
#295 = DIRECTION ( 'NONE',  ( -1.000000000000000000, 0.0000000000000000000, -0.0000000000000000000 ) ) ;
#296 = PRODUCT_DEFINITION_CONTEXT ( 'detailed design', #155, 'design' ) ;
#297 = ORIENTED_EDGE ( 'NONE', *, *, #137, .F. ) ;
#298 = CARTESIAN_POINT ( 'NONE',  ( 0.0000000000000000000, 0.0000000000000000000, 0.0000000000000000000 ) ) ;
#299 = DIRECTION ( 'NONE',  ( 0.0000000000000000000, 0.0000000000000000000, 1.000000000000000000 ) ) ;
#300 = ORIENTED_EDGE ( 'NONE', *, *, #219, .F. ) ;
#301 = CARTESIAN_POINT ( 'NONE',  ( 9.375000000000000000, 0.0000000000000000000, 0.0000000000000000000 ) ) ;
#302 = AXIS2_PLACEMENT_3D ( 'NONE', #178, #294, #176 ) ;
#303 = CARTESIAN_POINT ( 'NONE',  ( 0.0000000000000000000, 0.0000000000000000000, 0.0000000000000000000 ) ) ;
ENDSEC;
END-ISO-10303-21;
