ISO-10303-21;
HEADER;
FILE_DESCRIPTION (( 'STEP AP214' ),
    '1' );
FILE_NAME ('3ACS-12.STEP',
    '2020-10-26T23:45:32',
    ( '' ),
    ( '' ),
    'SwSTEP 2.0',
    'SolidWorks 2019',
    '' );
FILE_SCHEMA (( 'AUTOMOTIVE_DESIGN' ));
ENDSEC;

DATA;
#1 = AXIS2_PLACEMENT_3D ( 'NONE', #145, #241, #100 ) ;
#2 = DIRECTION ( 'NONE',  ( 1.000000000000000000, -0.0000000000000000000, -0.0000000000000000000 ) ) ;
#3 =( NAMED_UNIT ( * ) SI_UNIT ( $, .STERADIAN. ) SOLID_ANGLE_UNIT ( ) );
#4 = CARTESIAN_POINT ( 'NONE',  ( 0.0000000000000000000, 0.0000000000000000000, 0.0000000000000000000 ) ) ;
#5 = DIRECTION ( 'NONE',  ( 0.0000000000000000000, 0.0000000000000000000, 1.000000000000000000 ) ) ;
#6 = PRODUCT_CONTEXT ( 'NONE', #18, 'mechanical' ) ;
#7 = CARTESIAN_POINT ( 'NONE',  ( 0.0000000000000000000, 7.347880794884120722E-16, -6.000000000000000888 ) ) ;
#8 = CARTESIAN_POINT ( 'NONE',  ( 0.0000000000000000000, 0.0000000000000000000, 0.0000000000000000000 ) ) ;
#9 = CARTESIAN_POINT ( 'NONE',  ( 9.375000000000000000, 2.449293598294706414E-16, -2.000000000000000000 ) ) ;
#10 = FACE_OUTER_BOUND ( 'NONE', #228, .T. ) ;
#11 = DIRECTION ( 'NONE',  ( -0.0000000000000000000, 0.0000000000000000000, 1.000000000000000000 ) ) ;
#12 = CARTESIAN_POINT ( 'NONE',  ( 9.375000000000000000, 0.0000000000000000000, 0.0000000000000000000 ) ) ;
#13 = ADVANCED_BREP_SHAPE_REPRESENTATION ( '3ACS-12', ( #221, #230 ), #96 ) ;
#14 = EDGE_LOOP ( 'NONE', ( #229, #130 ) ) ;
#15 = ORIENTED_EDGE ( 'NONE', *, *, #103, .F. ) ;
#16 = EDGE_LOOP ( 'NONE', ( #254, #89, #109, #131 ) ) ;
#17 = ORIENTED_EDGE ( 'NONE', *, *, #257, .T. ) ;
#18 = APPLICATION_CONTEXT ( 'automotive_design' ) ;
#19 = ADVANCED_FACE ( 'NONE', ( #263 ), #285, .T. ) ;
#20 = PRODUCT_DEFINITION_FORMATION_WITH_SPECIFIED_SOURCE ( 'ANY', '', #87, .NOT_KNOWN. ) ;
#21 = DIRECTION ( 'NONE',  ( -1.000000000000000000, -0.0000000000000000000, -0.0000000000000000000 ) ) ;
#22 = AXIS2_PLACEMENT_3D ( 'NONE', #167, #59, #151 ) ;
#23 = STYLED_ITEM ( 'NONE', ( #268 ), #221 ) ;
#24 = PRODUCT_DEFINITION_CONTEXT ( 'detailed design', #185, 'design' ) ;
#25 = EDGE_CURVE ( 'NONE', #121, #86, #236, .T. ) ;
#26 = CIRCLE ( 'NONE', #274, 1.515625000000000000 ) ;
#27 =( NAMED_UNIT ( * ) PLANE_ANGLE_UNIT ( ) SI_UNIT ( $, .RADIAN. ) );
#28 = CARTESIAN_POINT ( 'NONE',  ( 3.875000000000000444, 0.0000000000000000000, 1.999999999999999778 ) ) ;
#29 = ORIENTED_EDGE ( 'NONE', *, *, #45, .T. ) ;
#30 = DIRECTION ( 'NONE',  ( 1.000000000000000000, 0.0000000000000000000, 0.0000000000000000000 ) ) ;
#31 = DIRECTION ( 'NONE',  ( -1.000000000000000000, -0.0000000000000000000, -0.0000000000000000000 ) ) ;
#32 = DIRECTION ( 'NONE',  ( 1.000000000000000000, 0.0000000000000000000, 0.0000000000000000000 ) ) ;
#33 = CARTESIAN_POINT ( 'NONE',  ( 9.375000000000000000, 0.0000000000000000000, 0.0000000000000000000 ) ) ;
#34 = PRESENTATION_STYLE_ASSIGNMENT (( #146 ) ) ;
#35 = CARTESIAN_POINT ( 'NONE',  ( 0.0000000000000000000, 0.0000000000000000000, 0.0000000000000000000 ) ) ;
#36 = CARTESIAN_POINT ( 'NONE',  ( 0.0000000000000000000, 6.000000000000000888, 0.0000000000000000000 ) ) ;
#37 = AXIS2_PLACEMENT_3D ( 'NONE', #215, #212, #5 ) ;
#38 = DIRECTION ( 'NONE',  ( -1.000000000000000000, -0.0000000000000000000, -0.0000000000000000000 ) ) ;
#39 = VERTEX_POINT ( 'NONE', #192 ) ;
#40 = EDGE_CURVE ( 'NONE', #85, #63, #74, .T. ) ;
#41 = ORIENTED_EDGE ( 'NONE', *, *, #200, .T. ) ;
#42 = VECTOR ( 'NONE', #81, 39.37007874015748143 ) ;
#43 = ORIENTED_EDGE ( 'NONE', *, *, #200, .F. ) ;
#44 = VERTEX_POINT ( 'NONE', #258 ) ;
#45 = EDGE_CURVE ( 'NONE', #39, #63, #201, .T. ) ;
#46 = CARTESIAN_POINT ( 'NONE',  ( 3.875000000000001332, 1.999999999999999778, 0.0000000000000000000 ) ) ;
#47 = AXIS2_PLACEMENT_3D ( 'NONE', #261, #31, #118 ) ;
#48 = ADVANCED_FACE ( 'NONE', ( #159, #278 ), #208, .F. ) ;
#49 = AXIS2_PLACEMENT_3D ( 'NONE', #76, #269, #11 ) ;
#50 = DIRECTION ( 'NONE',  ( 0.0000000000000000000, 0.0000000000000000000, 1.000000000000000000 ) ) ;
#51 = LINE ( 'NONE', #193, #137 ) ;
#52 =( LENGTH_UNIT ( ) NAMED_UNIT ( * ) SI_UNIT ( $, .METRE. ) );
#53 = VERTEX_POINT ( 'NONE', #184 ) ;
#54 = SURFACE_SIDE_STYLE ('',( #244 ) ) ;
#55 = DIRECTION ( 'NONE',  ( 0.0000000000000000000, 0.0000000000000000000, 1.000000000000000000 ) ) ;
#56 =( NAMED_UNIT ( * ) PLANE_ANGLE_UNIT ( ) SI_UNIT ( $, .RADIAN. ) );
#57 = DIRECTION ( 'NONE',  ( 0.0000000000000000000, 0.0000000000000000000, 1.000000000000000000 ) ) ;
#58 = SURFACE_STYLE_USAGE ( .BOTH. , #129 ) ;
#59 = DIRECTION ( 'NONE',  ( -1.000000000000000000, -0.0000000000000000000, -0.0000000000000000000 ) ) ;
#60 = DIRECTION ( 'NONE',  ( 0.0000000000000000000, 0.0000000000000000000, 1.000000000000000000 ) ) ;
#61 = ORIENTED_EDGE ( 'NONE', *, *, #239, .F. ) ;
#62 = ORIENTED_EDGE ( 'NONE', *, *, #134, .F. ) ;
#63 = VERTEX_POINT ( 'NONE', #28 ) ;
#64 = PRESENTATION_LAYER_ASSIGNMENT (  '', '', ( #23 ) ) ;
#65 = ORIENTED_EDGE ( 'NONE', *, *, #187, .T. ) ;
#66 = CARTESIAN_POINT ( 'NONE',  ( 3.875000000000000444, 0.0000000000000000000, 0.0000000000000000000 ) ) ;
#67 = AXIS2_PLACEMENT_3D ( 'NONE', #46, #301, #90 ) ;
#68 = UNCERTAINTY_MEASURE_WITH_UNIT (LENGTH_MEASURE( 1.000000000000000082E-05 ), #237, 'distance_accuracy_value', 'NONE');
#69 = ADVANCED_FACE ( 'NONE', ( #188 ), #235, .T. ) ;
#70 = AXIS2_PLACEMENT_3D ( 'NONE', #170, #32, #288 ) ;
#71 = CYLINDRICAL_SURFACE ( 'NONE', #119, 1.515625000000000000 ) ;
#72 = CARTESIAN_POINT ( 'NONE',  ( 9.375000000000000000, 0.0000000000000000000, 0.0000000000000000000 ) ) ;
#73 = COLOUR_RGB ( '',0.7921568627450980005, 0.8196078431372548767, 0.9333333333333333481 ) ;
#74 = LINE ( 'NONE', #136, #206 ) ;
#75 =( NAMED_UNIT ( * ) SI_UNIT ( $, .STERADIAN. ) SOLID_ANGLE_UNIT ( ) );
#76 = CARTESIAN_POINT ( 'NONE',  ( 9.375000000000000000, 0.0000000000000000000, 0.0000000000000000000 ) ) ;
#77 = FACE_OUTER_BOUND ( 'NONE', #205, .T. ) ;
#78 = CARTESIAN_POINT ( 'NONE',  ( 3.875000000000001776, 0.0000000000000000000, 6.000000000000000888 ) ) ;
#79 = LINE ( 'NONE', #238, #207 ) ;
#80 = CLOSED_SHELL ( 'NONE', ( #182, #69, #97, #262, #19, #48, #157, #297, #82 ) ) ;
#81 = DIRECTION ( 'NONE',  ( 1.000000000000000000, -0.0000000000000000000, -0.0000000000000000000 ) ) ;
#82 = ADVANCED_FACE ( 'NONE', ( #211 ), #71, .F. ) ;
#83 = CIRCLE ( 'NONE', #303, 6.000000000000000888 ) ;
#84 = DIRECTION ( 'NONE',  ( 0.0000000000000000000, 0.0000000000000000000, -1.000000000000000000 ) ) ;
#85 = VERTEX_POINT ( 'NONE', #162 ) ;
#86 = VERTEX_POINT ( 'NONE', #260 ) ;
#87 = PRODUCT ( '3ACS-12', '3ACS-12', '', ( #6 ) ) ;
#88 = VERTEX_POINT ( 'NONE', #218 ) ;
#89 = ORIENTED_EDGE ( 'NONE', *, *, #259, .T. ) ;
#90 = DIRECTION ( 'NONE',  ( -0.0000000000000000000, 0.0000000000000000000, 1.000000000000000000 ) ) ;
#91 = UNCERTAINTY_MEASURE_WITH_UNIT (LENGTH_MEASURE( 1.000000000000000082E-05 ), #173, 'distance_accuracy_value', 'NONE');
#92 = AXIS2_PLACEMENT_3D ( 'NONE', #33, #222, #57 ) ;
#93 = DIRECTION ( 'NONE',  ( 0.0000000000000000000, 0.0000000000000000000, -1.000000000000000000 ) ) ;
#94 = DIRECTION ( 'NONE',  ( -1.000000000000000000, -0.0000000000000000000, -0.0000000000000000000 ) ) ;
#95 = CARTESIAN_POINT ( 'NONE',  ( 9.375000000000000000, 0.0000000000000000000, 0.0000000000000000000 ) ) ;
#96 =( GEOMETRIC_REPRESENTATION_CONTEXT ( 3 ) GLOBAL_UNCERTAINTY_ASSIGNED_CONTEXT ( ( #138 ) ) GLOBAL_UNIT_ASSIGNED_CONTEXT ( ( #198, #56, #101 ) ) REPRESENTATION_CONTEXT ( 'NONE', 'WORKASPACE' ) );
#97 = ADVANCED_FACE ( 'NONE', ( #10 ), #287, .T. ) ;
#98 = DIRECTION ( 'NONE',  ( -1.000000000000000000, -0.0000000000000000000, -0.0000000000000000000 ) ) ;
#99 =( NAMED_UNIT ( * ) PLANE_ANGLE_UNIT ( ) SI_UNIT ( $, .RADIAN. ) );
#100 = DIRECTION ( 'NONE',  ( 0.0000000000000000000, 0.0000000000000000000, 1.000000000000000000 ) ) ;
#101 =( NAMED_UNIT ( * ) SI_UNIT ( $, .STERADIAN. ) SOLID_ANGLE_UNIT ( ) );
#102 = CARTESIAN_POINT ( 'NONE',  ( 0.0000000000000000000, 0.0000000000000000000, -1.515625000000000000 ) ) ;
#103 = EDGE_CURVE ( 'NONE', #53, #273, #293, .T. ) ;
#104 = DIRECTION ( 'NONE',  ( 0.0000000000000000000, 0.0000000000000000000, 1.000000000000000000 ) ) ;
#105 = CARTESIAN_POINT ( 'NONE',  ( 0.0000000000000000000, 1.856105304957707054E-16, 1.515625000000000000 ) ) ;
#106 = EDGE_LOOP ( 'NONE', ( #65, #255 ) ) ;
#107 = ORIENTED_EDGE ( 'NONE', *, *, #234, .T. ) ;
#108 = ORIENTED_EDGE ( 'NONE', *, *, #187, .F. ) ;
#109 = ORIENTED_EDGE ( 'NONE', *, *, #40, .T. ) ;
#110 = VERTEX_POINT ( 'NONE', #125 ) ;
#111 = AXIS2_PLACEMENT_3D ( 'NONE', #66, #21, #115 ) ;
#112 =( GEOMETRIC_REPRESENTATION_CONTEXT ( 3 ) GLOBAL_UNCERTAINTY_ASSIGNED_CONTEXT ( ( #91 ) ) GLOBAL_UNIT_ASSIGNED_CONTEXT ( ( #173, #99, #3 ) ) REPRESENTATION_CONTEXT ( 'NONE', 'WORKASPACE' ) );
#113 = EDGE_CURVE ( 'NONE', #85, #203, #242, .T. ) ;
#114 = AXIS2_PLACEMENT_3D ( 'NONE', #95, #286, #60 ) ;
#115 = DIRECTION ( 'NONE',  ( 0.0000000000000000000, 0.0000000000000000000, 1.000000000000000000 ) ) ;
#116 = COLOUR_RGB ( '',0.7921568627450980005, 0.8196078431372548767, 0.9333333333333333481 ) ;
#117 =( GEOMETRIC_REPRESENTATION_CONTEXT ( 3 ) GLOBAL_UNCERTAINTY_ASSIGNED_CONTEXT ( ( #68 ) ) GLOBAL_UNIT_ASSIGNED_CONTEXT ( ( #237, #27, #75 ) ) REPRESENTATION_CONTEXT ( 'NONE', 'WORKASPACE' ) );
#118 = DIRECTION ( 'NONE',  ( 0.0000000000000000000, 0.0000000000000000000, 1.000000000000000000 ) ) ;
#119 = AXIS2_PLACEMENT_3D ( 'NONE', #140, #2, #93 ) ;
#120 = CARTESIAN_POINT ( 'NONE',  ( 0.0000000000000000000, 0.0000000000000000000, 0.0000000000000000000 ) ) ;
#121 = VERTEX_POINT ( 'NONE', #78 ) ;
#122 = DIRECTION ( 'NONE',  ( 1.000000000000000000, -0.0000000000000000000, -0.0000000000000000000 ) ) ;
#123 = DIRECTION ( 'NONE',  ( 0.0000000000000000000, 0.0000000000000000000, -1.000000000000000000 ) ) ;
#124 = PLANE ( 'NONE',  #49 ) ;
#125 = CARTESIAN_POINT ( 'NONE',  ( 9.375000000000000000, 0.0000000000000000000, -1.515625000000000000 ) ) ;
#126 = LENGTH_MEASURE_WITH_UNIT ( LENGTH_MEASURE( 0.02539999999999999897 ), #266 );
#127 = FILL_AREA_STYLE ('',( #290 ) ) ;
#128 = CIRCLE ( 'NONE', #22, 6.000000000000000888 ) ;
#129 = SURFACE_SIDE_STYLE ('',( #197 ) ) ;
#130 = ORIENTED_EDGE ( 'NONE', *, *, #161, .F. ) ;
#131 = ORIENTED_EDGE ( 'NONE', *, *, #45, .F. ) ;
#132 = ORIENTED_EDGE ( 'NONE', *, *, #209, .T. ) ;
#133 = VERTEX_POINT ( 'NONE', #7 ) ;
#134 = EDGE_CURVE ( 'NONE', #273, #53, #158, .T. ) ;
#135 = AXIS2_PLACEMENT_3D ( 'NONE', #169, #265, #55 ) ;
#136 = CARTESIAN_POINT ( 'NONE',  ( 0.0000000000000000000, 0.0000000000000000000, 2.000000000000000000 ) ) ;
#137 = VECTOR ( 'NONE', #122, 39.37007874015748143 ) ;
#138 = UNCERTAINTY_MEASURE_WITH_UNIT (LENGTH_MEASURE( 1.000000000000000082E-05 ), #198, 'distance_accuracy_value', 'NONE');
#139 = PRODUCT_DEFINITION ( 'UNKNOWN', '', #20, #24 ) ;
#140 = CARTESIAN_POINT ( 'NONE',  ( 0.0000000000000000000, 0.0000000000000000000, 0.0000000000000000000 ) ) ;
#141 = DIRECTION ( 'NONE',  ( -1.000000000000000000, -0.0000000000000000000, -0.0000000000000000000 ) ) ;
#142 = DIRECTION ( 'NONE',  ( 0.0000000000000000000, 0.0000000000000000000, 1.000000000000000000 ) ) ;
#143 = FACE_OUTER_BOUND ( 'NONE', #181, .T. ) ;
#144 = ORIENTED_EDGE ( 'NONE', *, *, #245, .F. ) ;
#145 = CARTESIAN_POINT ( 'NONE',  ( 3.875000000000001776, 0.0000000000000000000, 0.0000000000000000000 ) ) ;
#146 = SURFACE_STYLE_USAGE ( .BOTH. , #54 ) ;
#147 = CARTESIAN_POINT ( 'NONE',  ( 0.0000000000000000000, 0.0000000000000000000, 0.0000000000000000000 ) ) ;
#148 = AXIS2_PLACEMENT_3D ( 'NONE', #267, #243, #123 ) ;
#149 = FILL_AREA_STYLE ('',( #194 ) ) ;
#150 = DIRECTION ( 'NONE',  ( 0.0000000000000000000, 0.0000000000000000000, 1.000000000000000000 ) ) ;
#151 = DIRECTION ( 'NONE',  ( 0.0000000000000000000, 0.0000000000000000000, 1.000000000000000000 ) ) ;
#152 = CARTESIAN_POINT ( 'NONE',  ( 0.0000000000000000000, 0.0000000000000000000, 0.0000000000000000000 ) ) ;
#153 = ORIENTED_EDGE ( 'NONE', *, *, #209, .F. ) ;
#154 = ORIENTED_EDGE ( 'NONE', *, *, #161, .T. ) ;
#155 = ORIENTED_EDGE ( 'NONE', *, *, #25, .F. ) ;
#156 = ORIENTED_EDGE ( 'NONE', *, *, #232, .T. ) ;
#157 = ADVANCED_FACE ( 'NONE', ( #77 ), #195, .T. ) ;
#158 = CIRCLE ( 'NONE', #148, 1.515625000000000000 ) ;
#159 = FACE_OUTER_BOUND ( 'NONE', #14, .T. ) ;
#160 = AXIS2_PLACEMENT_3D ( 'NONE', #4, #165, #142 ) ;
#161 = EDGE_CURVE ( 'NONE', #88, #121, #210, .T. ) ;
#162 = CARTESIAN_POINT ( 'NONE',  ( 9.375000000000000000, 0.0000000000000000000, 2.000000000000000000 ) ) ;
#163 = DIRECTION ( 'NONE',  ( 0.0000000000000000000, 0.0000000000000000000, -1.000000000000000000 ) ) ;
#164 = CIRCLE ( 'NONE', #252, 1.515625000000000000 ) ;
#165 = DIRECTION ( 'NONE',  ( -1.000000000000000000, -0.0000000000000000000, -0.0000000000000000000 ) ) ;
#166 = LINE ( 'NONE', #189, #279 ) ;
#167 = CARTESIAN_POINT ( 'NONE',  ( 0.0000000000000000000, 0.0000000000000000000, 0.0000000000000000000 ) ) ;
#168 = APPLICATION_PROTOCOL_DEFINITION ( 'draft international standard', 'automotive_design', 1998, #185 ) ;
#169 = CARTESIAN_POINT ( 'NONE',  ( 0.0000000000000000000, 0.0000000000000000000, 0.0000000000000000000 ) ) ;
#170 = CARTESIAN_POINT ( 'NONE',  ( 0.0000000000000000000, 0.0000000000000000000, 0.0000000000000000000 ) ) ;
#171 = SHAPE_DEFINITION_REPRESENTATION ( #177, #13 ) ;
#172 = LINE ( 'NONE', #102, #42 ) ;
#173 =( CONVERSION_BASED_UNIT ( 'INCH', #126 ) LENGTH_UNIT ( ) NAMED_UNIT ( #271 ) );
#174 = DIMENSIONAL_EXPONENTS ( 1.000000000000000000, 0.0000000000000000000, 0.0000000000000000000, 0.0000000000000000000, 0.0000000000000000000, 0.0000000000000000000, 0.0000000000000000000 ) ;
#175 =( LENGTH_UNIT ( ) NAMED_UNIT ( * ) SI_UNIT ( $, .METRE. ) );
#176 = ORIENTED_EDGE ( 'NONE', *, *, #300, .T. ) ;
#177 = PRODUCT_DEFINITION_SHAPE ( 'NONE', 'NONE',  #139 ) ;
#178 = EDGE_LOOP ( 'NONE', ( #17, #176, #108, #155 ) ) ;
#179 = ORIENTED_EDGE ( 'NONE', *, *, #134, .T. ) ;
#180 = STYLED_ITEM ( 'NONE', ( #34 ), #13 ) ;
#181 = EDGE_LOOP ( 'NONE', ( #298, #199 ) ) ;
#182 = ADVANCED_FACE ( 'NONE', ( #196 ), #292, .F. ) ;
#183 = CIRCLE ( 'NONE', #114, 2.000000000000000000 ) ;
#184 = CARTESIAN_POINT ( 'NONE',  ( 0.0000000000000000000, 0.0000000000000000000, -1.515625000000000000 ) ) ;
#185 = APPLICATION_CONTEXT ( 'automotive_design' ) ;
#186 = AXIS2_PLACEMENT_3D ( 'NONE', #147, #98, #104 ) ;
#187 = EDGE_CURVE ( 'NONE', #86, #133, #83, .T. ) ;
#188 = FACE_OUTER_BOUND ( 'NONE', #178, .T. ) ;
#189 = CARTESIAN_POINT ( 'NONE',  ( 0.0000000000000000000, 2.449293598294706414E-16, -2.000000000000000000 ) ) ;
#190 = DIRECTION ( 'NONE',  ( 1.000000000000000000, 0.0000000000000000000, 0.0000000000000000000 ) ) ;
#191 = CIRCLE ( 'NONE', #37, 6.000000000000000888 ) ;
#192 = CARTESIAN_POINT ( 'NONE',  ( 3.875000000000000444, 2.449293598294705921E-16, -1.999999999999999778 ) ) ;
#193 = CARTESIAN_POINT ( 'NONE',  ( 0.0000000000000000000, 1.856105304957707054E-16, 1.515625000000000000 ) ) ;
#194 = FILL_AREA_STYLE_COLOUR ( '', #73 ) ;
#195 = CYLINDRICAL_SURFACE ( 'NONE', #135, 6.000000000000000888 ) ;
#196 = FACE_OUTER_BOUND ( 'NONE', #251, .T. ) ;
#197 = SURFACE_STYLE_FILL_AREA ( #127 ) ;
#198 =( CONVERSION_BASED_UNIT ( 'INCH', #216 ) LENGTH_UNIT ( ) NAMED_UNIT ( #174 ) );
#199 = ORIENTED_EDGE ( 'NONE', *, *, #259, .F. ) ;
#200 = EDGE_CURVE ( 'NONE', #110, #44, #164, .T. ) ;
#201 = CIRCLE ( 'NONE', #111, 1.999999999999999778 ) ;
#202 = ORIENTED_EDGE ( 'NONE', *, *, #103, .T. ) ;
#203 = VERTEX_POINT ( 'NONE', #9 ) ;
#204 = DIMENSIONAL_EXPONENTS ( 1.000000000000000000, 0.0000000000000000000, 0.0000000000000000000, 0.0000000000000000000, 0.0000000000000000000, 0.0000000000000000000, 0.0000000000000000000 ) ;
#205 = EDGE_LOOP ( 'NONE', ( #272, #154, #295, #226 ) ) ;
#206 = VECTOR ( 'NONE', #231, 39.37007874015748143 ) ;
#207 = VECTOR ( 'NONE', #141, 39.37007874015748143 ) ;
#208 = PLANE ( 'NONE',  #67 ) ;
#209 = EDGE_CURVE ( 'NONE', #53, #110, #172, .T. ) ;
#210 = CIRCLE ( 'NONE', #1, 6.000000000000000888 ) ;
#211 = FACE_OUTER_BOUND ( 'NONE', #264, .T. ) ;
#212 = DIRECTION ( 'NONE',  ( -1.000000000000000000, -0.0000000000000000000, -0.0000000000000000000 ) ) ;
#213 = DIRECTION ( 'NONE',  ( 0.0000000000000000000, 0.0000000000000000000, 1.000000000000000000 ) ) ;
#214 = CARTESIAN_POINT ( 'NONE',  ( 0.0000000000000000000, 0.0000000000000000000, 6.000000000000000888 ) ) ;
#215 = CARTESIAN_POINT ( 'NONE',  ( 3.875000000000001776, 0.0000000000000000000, 0.0000000000000000000 ) ) ;
#216 = LENGTH_MEASURE_WITH_UNIT ( LENGTH_MEASURE( 0.02539999999999999897 ), #52 );
#217 = EDGE_LOOP ( 'NONE', ( #43, #276 ) ) ;
#218 = CARTESIAN_POINT ( 'NONE',  ( 3.875000000000001776, 7.347880794884120722E-16, -6.000000000000000888 ) ) ;
#219 = DIRECTION ( 'NONE',  ( 1.000000000000000000, 0.0000000000000000000, 0.0000000000000000000 ) ) ;
#220 = APPLICATION_PROTOCOL_DEFINITION ( 'draft international standard', 'automotive_design', 1998, #18 ) ;
#221 = MANIFOLD_SOLID_BREP ( 'Cut-Extrude1', #80 ) ;
#222 = DIRECTION ( 'NONE',  ( -1.000000000000000000, -0.0000000000000000000, -0.0000000000000000000 ) ) ;
#223 = FACE_BOUND ( 'NONE', #217, .T. ) ;
#224 = PRESENTATION_LAYER_ASSIGNMENT (  '', '', ( #180 ) ) ;
#225 = DIRECTION ( 'NONE',  ( 0.0000000000000000000, 0.0000000000000000000, -1.000000000000000000 ) ) ;
#226 = ORIENTED_EDGE ( 'NONE', *, *, #277, .F. ) ;
#227 = ORIENTED_EDGE ( 'NONE', *, *, #239, .T. ) ;
#228 = EDGE_LOOP ( 'NONE', ( #294, #156, #61, #296 ) ) ;
#229 = ORIENTED_EDGE ( 'NONE', *, *, #257, .F. ) ;
#230 = AXIS2_PLACEMENT_3D ( 'NONE', #8, #213, #190 ) ;
#231 = DIRECTION ( 'NONE',  ( -1.000000000000000000, -0.0000000000000000000, -0.0000000000000000000 ) ) ;
#232 = EDGE_CURVE ( 'NONE', #203, #39, #166, .T. ) ;
#233 = MECHANICAL_DESIGN_GEOMETRIC_PRESENTATION_REPRESENTATION (  '', ( #23 ), #117 ) ;
#234 = EDGE_CURVE ( 'NONE', #44, #110, #26, .T. ) ;
#235 = CYLINDRICAL_SURFACE ( 'NONE', #280, 6.000000000000000888 ) ;
#236 = LINE ( 'NONE', #214, #299 ) ;
#237 =( CONVERSION_BASED_UNIT ( 'INCH', #270 ) LENGTH_UNIT ( ) NAMED_UNIT ( #204 ) );
#238 = CARTESIAN_POINT ( 'NONE',  ( 0.0000000000000000000, 7.347880794884120722E-16, -6.000000000000000888 ) ) ;
#239 = EDGE_CURVE ( 'NONE', #63, #39, #284, .T. ) ;
#240 = DIRECTION ( 'NONE',  ( 0.0000000000000000000, 0.0000000000000000000, -1.000000000000000000 ) ) ;
#241 = DIRECTION ( 'NONE',  ( -1.000000000000000000, -0.0000000000000000000, -0.0000000000000000000 ) ) ;
#242 = CIRCLE ( 'NONE', #92, 2.000000000000000000 ) ;
#243 = DIRECTION ( 'NONE',  ( 1.000000000000000000, 0.0000000000000000000, 0.0000000000000000000 ) ) ;
#244 = SURFACE_STYLE_FILL_AREA ( #149 ) ;
#245 = EDGE_CURVE ( 'NONE', #273, #44, #51, .T. ) ;
#246 = DIRECTION ( 'NONE',  ( 1.000000000000000000, -0.0000000000000000000, -0.0000000000000000000 ) ) ;
#247 = PLANE ( 'NONE',  #302 ) ;
#248 = DIRECTION ( 'NONE',  ( 1.000000000000000000, 0.0000000000000000000, 0.0000000000000000000 ) ) ;
#249 = ORIENTED_EDGE ( 'NONE', *, *, #245, .T. ) ;
#250 = MECHANICAL_DESIGN_GEOMETRIC_PRESENTATION_REPRESENTATION (  '', ( #180 ), #112 ) ;
#251 = EDGE_LOOP ( 'NONE', ( #62, #249, #107, #153 ) ) ;
#252 = AXIS2_PLACEMENT_3D ( 'NONE', #12, #248, #84 ) ;
#253 = EDGE_LOOP ( 'NONE', ( #227, #29 ) ) ;
#254 = ORIENTED_EDGE ( 'NONE', *, *, #232, .F. ) ;
#255 = ORIENTED_EDGE ( 'NONE', *, *, #277, .T. ) ;
#256 = AXIS2_PLACEMENT_3D ( 'NONE', #152, #246, #225 ) ;
#257 = EDGE_CURVE ( 'NONE', #121, #88, #191, .T. ) ;
#258 = CARTESIAN_POINT ( 'NONE',  ( 9.375000000000000000, 1.856105304957707054E-16, 1.515625000000000000 ) ) ;
#259 = EDGE_CURVE ( 'NONE', #203, #85, #183, .T. ) ;
#260 = CARTESIAN_POINT ( 'NONE',  ( 0.0000000000000000000, 0.0000000000000000000, 6.000000000000000888 ) ) ;
#261 = CARTESIAN_POINT ( 'NONE',  ( 3.875000000000000444, 0.0000000000000000000, 0.0000000000000000000 ) ) ;
#262 = ADVANCED_FACE ( 'NONE', ( #223, #143 ), #124, .F. ) ;
#263 = FACE_OUTER_BOUND ( 'NONE', #16, .T. ) ;
#264 = EDGE_LOOP ( 'NONE', ( #144, #15, #132, #41 ) ) ;
#265 = DIRECTION ( 'NONE',  ( -1.000000000000000000, -0.0000000000000000000, -0.0000000000000000000 ) ) ;
#266 =( LENGTH_UNIT ( ) NAMED_UNIT ( * ) SI_UNIT ( $, .METRE. ) );
#267 = CARTESIAN_POINT ( 'NONE',  ( 0.0000000000000000000, 0.0000000000000000000, 0.0000000000000000000 ) ) ;
#268 = PRESENTATION_STYLE_ASSIGNMENT (( #58 ) ) ;
#269 = DIRECTION ( 'NONE',  ( -1.000000000000000000, 0.0000000000000000000, -0.0000000000000000000 ) ) ;
#270 = LENGTH_MEASURE_WITH_UNIT ( LENGTH_MEASURE( 0.02539999999999999897 ), #175 );
#271 = DIMENSIONAL_EXPONENTS ( 1.000000000000000000, 0.0000000000000000000, 0.0000000000000000000, 0.0000000000000000000, 0.0000000000000000000, 0.0000000000000000000, 0.0000000000000000000 ) ;
#272 = ORIENTED_EDGE ( 'NONE', *, *, #300, .F. ) ;
#273 = VERTEX_POINT ( 'NONE', #105 ) ;
#274 = AXIS2_PLACEMENT_3D ( 'NONE', #72, #30, #163 ) ;
#275 = EDGE_LOOP ( 'NONE', ( #202, #179 ) ) ;
#276 = ORIENTED_EDGE ( 'NONE', *, *, #234, .F. ) ;
#277 = EDGE_CURVE ( 'NONE', #133, #86, #128, .T. ) ;
#278 = FACE_BOUND ( 'NONE', #253, .T. ) ;
#279 = VECTOR ( 'NONE', #282, 39.37007874015748143 ) ;
#280 = AXIS2_PLACEMENT_3D ( 'NONE', #120, #281, #50 ) ;
#281 = DIRECTION ( 'NONE',  ( -1.000000000000000000, -0.0000000000000000000, -0.0000000000000000000 ) ) ;
#282 = DIRECTION ( 'NONE',  ( -1.000000000000000000, -0.0000000000000000000, -0.0000000000000000000 ) ) ;
#283 = PRODUCT_RELATED_PRODUCT_CATEGORY ( 'part', '', ( #87 ) ) ;
#284 = CIRCLE ( 'NONE', #47, 1.999999999999999778 ) ;
#285 = CYLINDRICAL_SURFACE ( 'NONE', #160, 2.000000000000000000 ) ;
#286 = DIRECTION ( 'NONE',  ( -1.000000000000000000, -0.0000000000000000000, -0.0000000000000000000 ) ) ;
#287 = CYLINDRICAL_SURFACE ( 'NONE', #186, 2.000000000000000000 ) ;
#288 = DIRECTION ( 'NONE',  ( 0.0000000000000000000, 0.0000000000000000000, -1.000000000000000000 ) ) ;
#289 = FACE_OUTER_BOUND ( 'NONE', #106, .T. ) ;
#290 = FILL_AREA_STYLE_COLOUR ( '', #116 ) ;
#291 = FACE_BOUND ( 'NONE', #275, .T. ) ;
#292 = CYLINDRICAL_SURFACE ( 'NONE', #256, 1.515625000000000000 ) ;
#293 = CIRCLE ( 'NONE', #70, 1.515625000000000000 ) ;
#294 = ORIENTED_EDGE ( 'NONE', *, *, #113, .T. ) ;
#295 = ORIENTED_EDGE ( 'NONE', *, *, #25, .T. ) ;
#296 = ORIENTED_EDGE ( 'NONE', *, *, #40, .F. ) ;
#297 = ADVANCED_FACE ( 'NONE', ( #291, #289 ), #247, .F. ) ;
#298 = ORIENTED_EDGE ( 'NONE', *, *, #113, .F. ) ;
#299 = VECTOR ( 'NONE', #94, 39.37007874015748143 ) ;
#300 = EDGE_CURVE ( 'NONE', #88, #133, #79, .T. ) ;
#301 = DIRECTION ( 'NONE',  ( -1.000000000000000000, 0.0000000000000000000, -0.0000000000000000000 ) ) ;
#302 = AXIS2_PLACEMENT_3D ( 'NONE', #36, #219, #240 ) ;
#303 = AXIS2_PLACEMENT_3D ( 'NONE', #35, #38, #150 ) ;
ENDSEC;
END-ISO-10303-21;
