ISO-10303-21;
HEADER;
FILE_DESCRIPTION (( 'STEP AP214' ),
    '1' );
FILE_NAME ('3ACS-10.STEP',
    '2020-10-26T23:44:11',
    ( '' ),
    ( '' ),
    'SwSTEP 2.0',
    'SolidWorks 2019',
    '' );
FILE_SCHEMA (( 'AUTOMOTIVE_DESIGN' ));
ENDSEC;

DATA;
#1 = PRESENTATION_LAYER_ASSIGNMENT (  '', '', ( #157 ) ) ;
#2 = DIRECTION ( 'NONE',  ( 0.0000000000000000000, 0.0000000000000000000, 1.000000000000000000 ) ) ;
#3 = LINE ( 'NONE', #5, #213 ) ;
#4 = AXIS2_PLACEMENT_3D ( 'NONE', #130, #38, #127 ) ;
#5 = CARTESIAN_POINT ( 'NONE',  ( 0.0000000000000000000, 6.123233995736766282E-16, -5.000000000000000000 ) ) ;
#6 = LINE ( 'NONE', #188, #48 ) ;
#7 = EDGE_CURVE ( 'NONE', #194, #37, #59, .T. ) ;
#8 = CARTESIAN_POINT ( 'NONE',  ( 0.0000000000000000000, 0.0000000000000000000, 2.000000000000000000 ) ) ;
#9 = PRODUCT_DEFINITION_SHAPE ( 'NONE', 'NONE',  #149 ) ;
#10 = DIRECTION ( 'NONE',  ( -1.000000000000000000, -0.0000000000000000000, -0.0000000000000000000 ) ) ;
#11 = VECTOR ( 'NONE', #148, 39.37007874015748143 ) ;
#12 = LENGTH_MEASURE_WITH_UNIT ( LENGTH_MEASURE( 0.02539999999999999897 ), #192 );
#13 = DIRECTION ( 'NONE',  ( 1.000000000000000000, -0.0000000000000000000, -0.0000000000000000000 ) ) ;
#14 = ORIENTED_EDGE ( 'NONE', *, *, #166, .T. ) ;
#15 = CARTESIAN_POINT ( 'NONE',  ( 0.0000000000000000000, 0.0000000000000000000, 0.0000000000000000000 ) ) ;
#16 = ORIENTED_EDGE ( 'NONE', *, *, #200, .T. ) ;
#17 = ADVANCED_FACE ( 'NONE', ( #23 ), #136, .T. ) ;
#18 = EDGE_LOOP ( 'NONE', ( #75, #68, #176, #203 ) ) ;
#19 = DIRECTION ( 'NONE',  ( 0.0000000000000000000, 0.0000000000000000000, -1.000000000000000000 ) ) ;
#20 = ORIENTED_EDGE ( 'NONE', *, *, #254, .F. ) ;
#21 =( NAMED_UNIT ( * ) SI_UNIT ( $, .STERADIAN. ) SOLID_ANGLE_UNIT ( ) );
#22 = AXIS2_PLACEMENT_3D ( 'NONE', #15, #116, #228 ) ;
#23 = FACE_OUTER_BOUND ( 'NONE', #221, .T. ) ;
#24 =( NAMED_UNIT ( * ) PLANE_ANGLE_UNIT ( ) SI_UNIT ( $, .RADIAN. ) );
#25 = FILL_AREA_STYLE ('',( #77 ) ) ;
#26 = MANIFOLD_SOLID_BREP ( 'Cut-Extrude1', #120 ) ;
#27 = SURFACE_SIDE_STYLE ('',( #53 ) ) ;
#28 = DIRECTION ( 'NONE',  ( 0.0000000000000000000, 0.0000000000000000000, 1.000000000000000000 ) ) ;
#29 = ADVANCED_FACE ( 'NONE', ( #163, #209 ), #303, .F. ) ;
#30 = ADVANCED_BREP_SHAPE_REPRESENTATION ( '3ACS-10', ( #26, #74 ), #189 ) ;
#31 = DIRECTION ( 'NONE',  ( -1.000000000000000000, -0.0000000000000000000, -0.0000000000000000000 ) ) ;
#32 =( CONVERSION_BASED_UNIT ( 'INCH', #12 ) LENGTH_UNIT ( ) NAMED_UNIT ( #171 ) );
#33 = CIRCLE ( 'NONE', #22, 1.515625000000000000 ) ;
#34 = VERTEX_POINT ( 'NONE', #253 ) ;
#35 = FACE_OUTER_BOUND ( 'NONE', #252, .T. ) ;
#36 = UNCERTAINTY_MEASURE_WITH_UNIT (LENGTH_MEASURE( 1.000000000000000082E-05 ), #175, 'distance_accuracy_value', 'NONE');
#37 = VERTEX_POINT ( 'NONE', #204 ) ;
#38 = DIRECTION ( 'NONE',  ( 1.000000000000000000, 0.0000000000000000000, 0.0000000000000000000 ) ) ;
#39 = AXIS2_PLACEMENT_3D ( 'NONE', #238, #119, #2 ) ;
#40 = ORIENTED_EDGE ( 'NONE', *, *, #217, .T. ) ;
#41 = CARTESIAN_POINT ( 'NONE',  ( 9.375000000000000000, 0.0000000000000000000, 0.0000000000000000000 ) ) ;
#42 = ADVANCED_FACE ( 'NONE', ( #71 ), #245, .F. ) ;
#43 = DIRECTION ( 'NONE',  ( 1.000000000000000000, -0.0000000000000000000, -0.0000000000000000000 ) ) ;
#44 = MECHANICAL_DESIGN_GEOMETRIC_PRESENTATION_REPRESENTATION (  '', ( #157 ), #84 ) ;
#45 =( LENGTH_UNIT ( ) NAMED_UNIT ( * ) SI_UNIT ( $, .METRE. ) );
#46 = EDGE_LOOP ( 'NONE', ( #250, #244 ) ) ;
#47 = CARTESIAN_POINT ( 'NONE',  ( 3.875000000000000444, 1.999999999999999778, 0.0000000000000000000 ) ) ;
#48 = VECTOR ( 'NONE', #146, 39.37007874015748143 ) ;
#49 = ORIENTED_EDGE ( 'NONE', *, *, #86, .F. ) ;
#50 = AXIS2_PLACEMENT_3D ( 'NONE', #89, #180, #94 ) ;
#51 = CARTESIAN_POINT ( 'NONE',  ( 3.875000000000000444, 0.0000000000000000000, 0.0000000000000000000 ) ) ;
#52 = ADVANCED_FACE ( 'NONE', ( #274, #196 ), #226, .F. ) ;
#53 = SURFACE_STYLE_FILL_AREA ( #137 ) ;
#54 = CIRCLE ( 'NONE', #121, 1.515625000000000000 ) ;
#55 = DIRECTION ( 'NONE',  ( -1.000000000000000000, 0.0000000000000000000, -0.0000000000000000000 ) ) ;
#56 = PRODUCT_RELATED_PRODUCT_CATEGORY ( 'part', '', ( #218 ) ) ;
#57 = DIMENSIONAL_EXPONENTS ( 1.000000000000000000, 0.0000000000000000000, 0.0000000000000000000, 0.0000000000000000000, 0.0000000000000000000, 0.0000000000000000000, 0.0000000000000000000 ) ;
#58 = ORIENTED_EDGE ( 'NONE', *, *, #82, .T. ) ;
#59 = CIRCLE ( 'NONE', #224, 5.000000000000000000 ) ;
#60 = CARTESIAN_POINT ( 'NONE',  ( 3.875000000000000444, 2.449293598294705921E-16, -1.999999999999999778 ) ) ;
#61 = CARTESIAN_POINT ( 'NONE',  ( 3.875000000000000444, 0.0000000000000000000, 0.0000000000000000000 ) ) ;
#62 = DIRECTION ( 'NONE',  ( 0.0000000000000000000, 0.0000000000000000000, 1.000000000000000000 ) ) ;
#63 = EDGE_CURVE ( 'NONE', #229, #225, #54, .T. ) ;
#64 = EDGE_LOOP ( 'NONE', ( #112, #201, #173, #108 ) ) ;
#65 = DIRECTION ( 'NONE',  ( -1.000000000000000000, -0.0000000000000000000, -0.0000000000000000000 ) ) ;
#66 = CARTESIAN_POINT ( 'NONE',  ( 9.375000000000000000, 0.0000000000000000000, 0.0000000000000000000 ) ) ;
#67 = ORIENTED_EDGE ( 'NONE', *, *, #205, .T. ) ;
#68 = ORIENTED_EDGE ( 'NONE', *, *, #185, .T. ) ;
#69 = CYLINDRICAL_SURFACE ( 'NONE', #275, 1.515625000000000000 ) ;
#70 = APPLICATION_PROTOCOL_DEFINITION ( 'draft international standard', 'automotive_design', 1998, #233 ) ;
#71 = FACE_OUTER_BOUND ( 'NONE', #129, .T. ) ;
#72 = SHAPE_DEFINITION_REPRESENTATION ( #9, #30 ) ;
#73 = ORIENTED_EDGE ( 'NONE', *, *, #205, .F. ) ;
#74 = AXIS2_PLACEMENT_3D ( 'NONE', #255, #272, #134 ) ;
#75 = ORIENTED_EDGE ( 'NONE', *, *, #200, .F. ) ;
#76 = DIRECTION ( 'NONE',  ( -1.000000000000000000, 0.0000000000000000000, -0.0000000000000000000 ) ) ;
#77 = FILL_AREA_STYLE_COLOUR ( '', #138 ) ;
#78 = EDGE_CURVE ( 'NONE', #280, #229, #202, .T. ) ;
#79 = DIRECTION ( 'NONE',  ( 0.0000000000000000000, 0.0000000000000000000, 1.000000000000000000 ) ) ;
#80 = CIRCLE ( 'NONE', #50, 2.000000000000000000 ) ;
#81 = PLANE ( 'NONE',  #282 ) ;
#82 = EDGE_CURVE ( 'NONE', #270, #220, #144, .T. ) ;
#83 = DIRECTION ( 'NONE',  ( 0.0000000000000000000, 0.0000000000000000000, -1.000000000000000000 ) ) ;
#84 =( GEOMETRIC_REPRESENTATION_CONTEXT ( 3 ) GLOBAL_UNCERTAINTY_ASSIGNED_CONTEXT ( ( #242 ) ) GLOBAL_UNIT_ASSIGNED_CONTEXT ( ( #96, #24, #21 ) ) REPRESENTATION_CONTEXT ( 'NONE', 'WORKASPACE' ) );
#85 = CARTESIAN_POINT ( 'NONE',  ( 3.875000000000000444, 0.0000000000000000000, 5.000000000000000000 ) ) ;
#86 = EDGE_CURVE ( 'NONE', #34, #280, #33, .T. ) ;
#87 = CIRCLE ( 'NONE', #190, 5.000000000000000000 ) ;
#88 = ORIENTED_EDGE ( 'NONE', *, *, #212, .F. ) ;
#89 = CARTESIAN_POINT ( 'NONE',  ( 9.375000000000000000, 0.0000000000000000000, 0.0000000000000000000 ) ) ;
#90 = ADVANCED_FACE ( 'NONE', ( #279 ), #69, .F. ) ;
#91 = DIRECTION ( 'NONE',  ( 0.0000000000000000000, 0.0000000000000000000, 1.000000000000000000 ) ) ;
#92 = CARTESIAN_POINT ( 'NONE',  ( 0.0000000000000000000, 0.0000000000000000000, 5.000000000000000000 ) ) ;
#93 = EDGE_LOOP ( 'NONE', ( #153, #292 ) ) ;
#94 = DIRECTION ( 'NONE',  ( 0.0000000000000000000, 0.0000000000000000000, 1.000000000000000000 ) ) ;
#95 = VERTEX_POINT ( 'NONE', #113 ) ;
#96 =( CONVERSION_BASED_UNIT ( 'INCH', #118 ) LENGTH_UNIT ( ) NAMED_UNIT ( #156 ) );
#97 = LENGTH_MEASURE_WITH_UNIT ( LENGTH_MEASURE( 0.02539999999999999897 ), #45 );
#98 =( LENGTH_UNIT ( ) NAMED_UNIT ( * ) SI_UNIT ( $, .METRE. ) );
#99 =( NAMED_UNIT ( * ) SI_UNIT ( $, .STERADIAN. ) SOLID_ANGLE_UNIT ( ) );
#100 = DIRECTION ( 'NONE',  ( 0.0000000000000000000, 0.0000000000000000000, 1.000000000000000000 ) ) ;
#101 = DIRECTION ( 'NONE',  ( -1.000000000000000000, -0.0000000000000000000, -0.0000000000000000000 ) ) ;
#102 = FACE_OUTER_BOUND ( 'NONE', #126, .T. ) ;
#103 = CIRCLE ( 'NONE', #4, 1.515625000000000000 ) ;
#104 = CARTESIAN_POINT ( 'NONE',  ( 0.0000000000000000000, 0.0000000000000000000, 5.000000000000000000 ) ) ;
#105 = CARTESIAN_POINT ( 'NONE',  ( 0.0000000000000000000, 0.0000000000000000000, 0.0000000000000000000 ) ) ;
#106 = CARTESIAN_POINT ( 'NONE',  ( 0.0000000000000000000, 0.0000000000000000000, -1.515625000000000000 ) ) ;
#107 = CARTESIAN_POINT ( 'NONE',  ( 0.0000000000000000000, 0.0000000000000000000, -1.515625000000000000 ) ) ;
#108 = ORIENTED_EDGE ( 'NONE', *, *, #269, .F. ) ;
#109 =( NAMED_UNIT ( * ) SI_UNIT ( $, .STERADIAN. ) SOLID_ANGLE_UNIT ( ) );
#110 = EDGE_CURVE ( 'NONE', #198, #277, #80, .T. ) ;
#111 = AXIS2_PLACEMENT_3D ( 'NONE', #259, #141, #83 ) ;
#112 = ORIENTED_EDGE ( 'NONE', *, *, #232, .F. ) ;
#113 = CARTESIAN_POINT ( 'NONE',  ( 3.875000000000000444, 0.0000000000000000000, 1.999999999999999778 ) ) ;
#114 = EDGE_LOOP ( 'NONE', ( #67, #227 ) ) ;
#115 = ORIENTED_EDGE ( 'NONE', *, *, #166, .F. ) ;
#116 = DIRECTION ( 'NONE',  ( 1.000000000000000000, 0.0000000000000000000, 0.0000000000000000000 ) ) ;
#117 = SURFACE_STYLE_FILL_AREA ( #25 ) ;
#118 = LENGTH_MEASURE_WITH_UNIT ( LENGTH_MEASURE( 0.02539999999999999897 ), #98 );
#119 = DIRECTION ( 'NONE',  ( -1.000000000000000000, -0.0000000000000000000, -0.0000000000000000000 ) ) ;
#120 = CLOSED_SHELL ( 'NONE', ( #90, #246, #17, #237, #278, #52, #222, #29, #42 ) ) ;
#121 = AXIS2_PLACEMENT_3D ( 'NONE', #41, #249, #19 ) ;
#122 = DIRECTION ( 'NONE',  ( -1.000000000000000000, -0.0000000000000000000, -0.0000000000000000000 ) ) ;
#123 = PRODUCT_DEFINITION_CONTEXT ( 'detailed design', #233, 'design' ) ;
#124 = EDGE_CURVE ( 'NONE', #277, #198, #286, .T. ) ;
#125 = ORIENTED_EDGE ( 'NONE', *, *, #232, .T. ) ;
#126 = EDGE_LOOP ( 'NONE', ( #169, #267 ) ) ;
#127 = DIRECTION ( 'NONE',  ( 0.0000000000000000000, 0.0000000000000000000, -1.000000000000000000 ) ) ;
#128 = AXIS2_PLACEMENT_3D ( 'NONE', #231, #162, #100 ) ;
#129 = EDGE_LOOP ( 'NONE', ( #155, #73, #290, #158 ) ) ;
#130 = CARTESIAN_POINT ( 'NONE',  ( 9.375000000000000000, 0.0000000000000000000, 0.0000000000000000000 ) ) ;
#131 = ORIENTED_EDGE ( 'NONE', *, *, #145, .T. ) ;
#132 = DIRECTION ( 'NONE',  ( 0.0000000000000000000, 0.0000000000000000000, 1.000000000000000000 ) ) ;
#133 =( NAMED_UNIT ( * ) PLANE_ANGLE_UNIT ( ) SI_UNIT ( $, .RADIAN. ) );
#134 = DIRECTION ( 'NONE',  ( 1.000000000000000000, 0.0000000000000000000, 0.0000000000000000000 ) ) ;
#135 = CIRCLE ( 'NONE', #295, 5.000000000000000000 ) ;
#136 = CYLINDRICAL_SURFACE ( 'NONE', #128, 2.000000000000000000 ) ;
#137 = FILL_AREA_STYLE ('',( #258 ) ) ;
#138 = COLOUR_RGB ( '',0.7921568627450980005, 0.8196078431372548767, 0.9333333333333333481 ) ;
#139 = PRESENTATION_STYLE_ASSIGNMENT (( #285 ) ) ;
#140 = FACE_OUTER_BOUND ( 'NONE', #18, .T. ) ;
#141 = DIRECTION ( 'NONE',  ( 1.000000000000000000, 0.0000000000000000000, 0.0000000000000000000 ) ) ;
#142 = AXIS2_PLACEMENT_3D ( 'NONE', #289, #10, #215 ) ;
#143 = APPLICATION_CONTEXT ( 'automotive_design' ) ;
#144 = CIRCLE ( 'NONE', #234, 5.000000000000000000 ) ;
#145 = EDGE_CURVE ( 'NONE', #37, #194, #135, .T. ) ;
#146 = DIRECTION ( 'NONE',  ( 1.000000000000000000, -0.0000000000000000000, -0.0000000000000000000 ) ) ;
#147 = DIRECTION ( 'NONE',  ( 0.0000000000000000000, 0.0000000000000000000, 1.000000000000000000 ) ) ;
#148 = DIRECTION ( 'NONE',  ( -1.000000000000000000, -0.0000000000000000000, -0.0000000000000000000 ) ) ;
#149 = PRODUCT_DEFINITION ( 'UNKNOWN', '', #187, #123 ) ;
#150 = UNCERTAINTY_MEASURE_WITH_UNIT (LENGTH_MEASURE( 1.000000000000000082E-05 ), #32, 'distance_accuracy_value', 'NONE');
#151 = ORIENTED_EDGE ( 'NONE', *, *, #7, .F. ) ;
#152 = DIRECTION ( 'NONE',  ( -1.000000000000000000, -0.0000000000000000000, -0.0000000000000000000 ) ) ;
#153 = ORIENTED_EDGE ( 'NONE', *, *, #82, .F. ) ;
#154 = DIRECTION ( 'NONE',  ( -0.0000000000000000000, 0.0000000000000000000, 1.000000000000000000 ) ) ;
#155 = ORIENTED_EDGE ( 'NONE', *, *, #217, .F. ) ;
#156 = DIMENSIONAL_EXPONENTS ( 1.000000000000000000, 0.0000000000000000000, 0.0000000000000000000, 0.0000000000000000000, 0.0000000000000000000, 0.0000000000000000000, 0.0000000000000000000 ) ;
#157 = STYLED_ITEM ( 'NONE', ( #301 ), #26 ) ;
#158 = ORIENTED_EDGE ( 'NONE', *, *, #63, .T. ) ;
#159 = CARTESIAN_POINT ( 'NONE',  ( 0.0000000000000000000, 0.0000000000000000000, 0.0000000000000000000 ) ) ;
#160 = ORIENTED_EDGE ( 'NONE', *, *, #181, .F. ) ;
#161 = PRODUCT_CONTEXT ( 'NONE', #143, 'mechanical' ) ;
#162 = DIRECTION ( 'NONE',  ( -1.000000000000000000, -0.0000000000000000000, -0.0000000000000000000 ) ) ;
#163 = FACE_BOUND ( 'NONE', #114, .T. ) ;
#164 = AXIS2_PLACEMENT_3D ( 'NONE', #51, #122, #28 ) ;
#165 = FACE_BOUND ( 'NONE', #172, .T. ) ;
#166 = EDGE_CURVE ( 'NONE', #225, #229, #103, .T. ) ;
#167 = AXIS2_PLACEMENT_3D ( 'NONE', #105, #264, #147 ) ;
#168 = FACE_OUTER_BOUND ( 'NONE', #64, .T. ) ;
#169 = ORIENTED_EDGE ( 'NONE', *, *, #110, .F. ) ;
#170 = DIRECTION ( 'NONE',  ( -1.000000000000000000, -0.0000000000000000000, -0.0000000000000000000 ) ) ;
#171 = DIMENSIONAL_EXPONENTS ( 1.000000000000000000, 0.0000000000000000000, 0.0000000000000000000, 0.0000000000000000000, 0.0000000000000000000, 0.0000000000000000000, 0.0000000000000000000 ) ;
#172 = EDGE_LOOP ( 'NONE', ( #300, #115 ) ) ;
#173 = ORIENTED_EDGE ( 'NONE', *, *, #254, .T. ) ;
#174 = LINE ( 'NONE', #92, #214 ) ;
#175 =( CONVERSION_BASED_UNIT ( 'INCH', #97 ) LENGTH_UNIT ( ) NAMED_UNIT ( #57 ) );
#176 = ORIENTED_EDGE ( 'NONE', *, *, #181, .T. ) ;
#177 = DIRECTION ( 'NONE',  ( -1.000000000000000000, -0.0000000000000000000, -0.0000000000000000000 ) ) ;
#178 = AXIS2_PLACEMENT_3D ( 'NONE', #159, #199, #223 ) ;
#179 = ORIENTED_EDGE ( 'NONE', *, *, #78, .F. ) ;
#180 = DIRECTION ( 'NONE',  ( -1.000000000000000000, -0.0000000000000000000, -0.0000000000000000000 ) ) ;
#181 = EDGE_CURVE ( 'NONE', #270, #194, #174, .T. ) ;
#182 =( GEOMETRIC_REPRESENTATION_CONTEXT ( 3 ) GLOBAL_UNCERTAINTY_ASSIGNED_CONTEXT ( ( #36 ) ) GLOBAL_UNIT_ASSIGNED_CONTEXT ( ( #175, #133, #99 ) ) REPRESENTATION_CONTEXT ( 'NONE', 'WORKASPACE' ) );
#183 = SURFACE_STYLE_USAGE ( .BOTH. , #302 ) ;
#184 = CARTESIAN_POINT ( 'NONE',  ( 9.375000000000000000, 1.856105304957707054E-16, 1.515625000000000000 ) ) ;
#185 = EDGE_CURVE ( 'NONE', #220, #270, #87, .T. ) ;
#186 = AXIS2_PLACEMENT_3D ( 'NONE', #66, #296, #91 ) ;
#187 = PRODUCT_DEFINITION_FORMATION_WITH_SPECIFIED_SOURCE ( 'ANY', '', #218, .NOT_KNOWN. ) ;
#188 = CARTESIAN_POINT ( 'NONE',  ( 0.0000000000000000000, 1.856105304957707054E-16, 1.515625000000000000 ) ) ;
#189 =( GEOMETRIC_REPRESENTATION_CONTEXT ( 3 ) GLOBAL_UNCERTAINTY_ASSIGNED_CONTEXT ( ( #150 ) ) GLOBAL_UNIT_ASSIGNED_CONTEXT ( ( #32, #291, #109 ) ) REPRESENTATION_CONTEXT ( 'NONE', 'WORKASPACE' ) );
#190 = AXIS2_PLACEMENT_3D ( 'NONE', #284, #235, #79 ) ;
#191 = AXIS2_PLACEMENT_3D ( 'NONE', #230, #281, #208 ) ;
#192 =( LENGTH_UNIT ( ) NAMED_UNIT ( * ) SI_UNIT ( $, .METRE. ) );
#193 = CIRCLE ( 'NONE', #164, 1.999999999999999778 ) ;
#194 = VERTEX_POINT ( 'NONE', #104 ) ;
#195 = ORIENTED_EDGE ( 'NONE', *, *, #7, .T. ) ;
#196 = FACE_BOUND ( 'NONE', #46, .T. ) ;
#197 = PRESENTATION_LAYER_ASSIGNMENT (  '', '', ( #293 ) ) ;
#198 = VERTEX_POINT ( 'NONE', #240 ) ;
#199 = DIRECTION ( 'NONE',  ( 1.000000000000000000, -0.0000000000000000000, -0.0000000000000000000 ) ) ;
#200 = EDGE_CURVE ( 'NONE', #220, #37, #3, .T. ) ;
#201 = ORIENTED_EDGE ( 'NONE', *, *, #124, .T. ) ;
#202 = LINE ( 'NONE', #107, #239 ) ;
#203 = ORIENTED_EDGE ( 'NONE', *, *, #145, .F. ) ;
#204 = CARTESIAN_POINT ( 'NONE',  ( 0.0000000000000000000, 6.123233995736766282E-16, -5.000000000000000000 ) ) ;
#205 = EDGE_CURVE ( 'NONE', #280, #34, #263, .T. ) ;
#206 = VERTEX_POINT ( 'NONE', #60 ) ;
#207 = DIRECTION ( 'NONE',  ( -1.000000000000000000, -0.0000000000000000000, -0.0000000000000000000 ) ) ;
#208 = DIRECTION ( 'NONE',  ( 0.0000000000000000000, 0.0000000000000000000, -1.000000000000000000 ) ) ;
#209 = FACE_OUTER_BOUND ( 'NONE', #248, .T. ) ;
#210 = CARTESIAN_POINT ( 'NONE',  ( 0.0000000000000000000, 2.449293598294706414E-16, -2.000000000000000000 ) ) ;
#211 = MECHANICAL_DESIGN_GEOMETRIC_PRESENTATION_REPRESENTATION (  '', ( #293 ), #182 ) ;
#212 = EDGE_CURVE ( 'NONE', #95, #206, #193, .T. ) ;
#213 = VECTOR ( 'NONE', #31, 39.37007874015748143 ) ;
#214 = VECTOR ( 'NONE', #177, 39.37007874015748143 ) ;
#215 = DIRECTION ( 'NONE',  ( 0.0000000000000000000, 0.0000000000000000000, 1.000000000000000000 ) ) ;
#216 = CYLINDRICAL_SURFACE ( 'NONE', #167, 2.000000000000000000 ) ;
#217 = EDGE_CURVE ( 'NONE', #34, #225, #6, .T. ) ;
#218 = PRODUCT ( '3ACS-10', '3ACS-10', '', ( #161 ) ) ;
#219 = CARTESIAN_POINT ( 'NONE',  ( 9.375000000000000000, 2.449293598294706414E-16, -2.000000000000000000 ) ) ;
#220 = VERTEX_POINT ( 'NONE', #241 ) ;
#221 = EDGE_LOOP ( 'NONE', ( #298, #125, #88, #20 ) ) ;
#222 = ADVANCED_FACE ( 'NONE', ( #140 ), #262, .T. ) ;
#223 = DIRECTION ( 'NONE',  ( 0.0000000000000000000, 0.0000000000000000000, -1.000000000000000000 ) ) ;
#224 = AXIS2_PLACEMENT_3D ( 'NONE', #283, #207, #257 ) ;
#225 = VERTEX_POINT ( 'NONE', #184 ) ;
#226 = PLANE ( 'NONE',  #276 ) ;
#227 = ORIENTED_EDGE ( 'NONE', *, *, #86, .T. ) ;
#228 = DIRECTION ( 'NONE',  ( 0.0000000000000000000, 0.0000000000000000000, -1.000000000000000000 ) ) ;
#229 = VERTEX_POINT ( 'NONE', #236 ) ;
#230 = CARTESIAN_POINT ( 'NONE',  ( 0.0000000000000000000, 5.000000000000000000, 0.0000000000000000000 ) ) ;
#231 = CARTESIAN_POINT ( 'NONE',  ( 0.0000000000000000000, 0.0000000000000000000, 0.0000000000000000000 ) ) ;
#232 = EDGE_CURVE ( 'NONE', #277, #206, #287, .T. ) ;
#233 = APPLICATION_CONTEXT ( 'automotive_design' ) ;
#234 = AXIS2_PLACEMENT_3D ( 'NONE', #294, #170, #132 ) ;
#235 = DIRECTION ( 'NONE',  ( -1.000000000000000000, -0.0000000000000000000, -0.0000000000000000000 ) ) ;
#236 = CARTESIAN_POINT ( 'NONE',  ( 9.375000000000000000, 0.0000000000000000000, -1.515625000000000000 ) ) ;
#237 = ADVANCED_FACE ( 'NONE', ( #165, #102 ), #81, .F. ) ;
#238 = CARTESIAN_POINT ( 'NONE',  ( 0.0000000000000000000, 0.0000000000000000000, 0.0000000000000000000 ) ) ;
#239 = VECTOR ( 'NONE', #13, 39.37007874015748143 ) ;
#240 = CARTESIAN_POINT ( 'NONE',  ( 9.375000000000000000, 0.0000000000000000000, 2.000000000000000000 ) ) ;
#241 = CARTESIAN_POINT ( 'NONE',  ( 3.875000000000000444, 6.123233995736766282E-16, -5.000000000000000000 ) ) ;
#242 = UNCERTAINTY_MEASURE_WITH_UNIT (LENGTH_MEASURE( 1.000000000000000082E-05 ), #96, 'distance_accuracy_value', 'NONE');
#243 = CYLINDRICAL_SURFACE ( 'NONE', #142, 5.000000000000000000 ) ;
#244 = ORIENTED_EDGE ( 'NONE', *, *, #269, .T. ) ;
#245 = CYLINDRICAL_SURFACE ( 'NONE', #178, 1.515625000000000000 ) ;
#246 = ADVANCED_FACE ( 'NONE', ( #35 ), #243, .T. ) ;
#247 = CIRCLE ( 'NONE', #288, 1.999999999999999778 ) ;
#248 = EDGE_LOOP ( 'NONE', ( #195, #131 ) ) ;
#249 = DIRECTION ( 'NONE',  ( 1.000000000000000000, 0.0000000000000000000, 0.0000000000000000000 ) ) ;
#250 = ORIENTED_EDGE ( 'NONE', *, *, #212, .T. ) ;
#251 = DIRECTION ( 'NONE',  ( 0.0000000000000000000, 0.0000000000000000000, 1.000000000000000000 ) ) ;
#252 = EDGE_LOOP ( 'NONE', ( #58, #16, #151, #160 ) ) ;
#253 = CARTESIAN_POINT ( 'NONE',  ( 0.0000000000000000000, 1.856105304957707054E-16, 1.515625000000000000 ) ) ;
#254 = EDGE_CURVE ( 'NONE', #198, #95, #266, .T. ) ;
#255 = CARTESIAN_POINT ( 'NONE',  ( 0.0000000000000000000, 0.0000000000000000000, 0.0000000000000000000 ) ) ;
#256 = COLOUR_RGB ( '',0.7921568627450980005, 0.8196078431372548767, 0.9333333333333333481 ) ;
#257 = DIRECTION ( 'NONE',  ( 0.0000000000000000000, 0.0000000000000000000, 1.000000000000000000 ) ) ;
#258 = FILL_AREA_STYLE_COLOUR ( '', #256 ) ;
#259 = CARTESIAN_POINT ( 'NONE',  ( 0.0000000000000000000, 0.0000000000000000000, 0.0000000000000000000 ) ) ;
#260 = APPLICATION_PROTOCOL_DEFINITION ( 'draft international standard', 'automotive_design', 1998, #143 ) ;
#261 = CARTESIAN_POINT ( 'NONE',  ( 9.375000000000000000, 0.0000000000000000000, 0.0000000000000000000 ) ) ;
#262 = CYLINDRICAL_SURFACE ( 'NONE', #39, 5.000000000000000000 ) ;
#263 = CIRCLE ( 'NONE', #111, 1.515625000000000000 ) ;
#264 = DIRECTION ( 'NONE',  ( -1.000000000000000000, -0.0000000000000000000, -0.0000000000000000000 ) ) ;
#265 = VECTOR ( 'NONE', #101, 39.37007874015748143 ) ;
#266 = LINE ( 'NONE', #8, #11 ) ;
#267 = ORIENTED_EDGE ( 'NONE', *, *, #124, .F. ) ;
#268 = CARTESIAN_POINT ( 'NONE',  ( 0.0000000000000000000, 0.0000000000000000000, 0.0000000000000000000 ) ) ;
#269 = EDGE_CURVE ( 'NONE', #206, #95, #247, .T. ) ;
#270 = VERTEX_POINT ( 'NONE', #85 ) ;
#271 = DIRECTION ( 'NONE',  ( -0.0000000000000000000, 0.0000000000000000000, 1.000000000000000000 ) ) ;
#272 = DIRECTION ( 'NONE',  ( 0.0000000000000000000, 0.0000000000000000000, 1.000000000000000000 ) ) ;
#273 = EDGE_LOOP ( 'NONE', ( #49, #40, #14, #179 ) ) ;
#274 = FACE_OUTER_BOUND ( 'NONE', #93, .T. ) ;
#275 = AXIS2_PLACEMENT_3D ( 'NONE', #268, #43, #299 ) ;
#276 = AXIS2_PLACEMENT_3D ( 'NONE', #47, #76, #154 ) ;
#277 = VERTEX_POINT ( 'NONE', #219 ) ;
#278 = ADVANCED_FACE ( 'NONE', ( #168 ), #216, .T. ) ;
#279 = FACE_OUTER_BOUND ( 'NONE', #273, .T. ) ;
#280 = VERTEX_POINT ( 'NONE', #106 ) ;
#281 = DIRECTION ( 'NONE',  ( 1.000000000000000000, 0.0000000000000000000, 0.0000000000000000000 ) ) ;
#282 = AXIS2_PLACEMENT_3D ( 'NONE', #261, #55, #271 ) ;
#283 = CARTESIAN_POINT ( 'NONE',  ( 0.0000000000000000000, 0.0000000000000000000, 0.0000000000000000000 ) ) ;
#284 = CARTESIAN_POINT ( 'NONE',  ( 3.875000000000000444, 0.0000000000000000000, 0.0000000000000000000 ) ) ;
#285 = SURFACE_STYLE_USAGE ( .BOTH. , #27 ) ;
#286 = CIRCLE ( 'NONE', #186, 2.000000000000000000 ) ;
#287 = LINE ( 'NONE', #210, #265 ) ;
#288 = AXIS2_PLACEMENT_3D ( 'NONE', #61, #65, #62 ) ;
#289 = CARTESIAN_POINT ( 'NONE',  ( 0.0000000000000000000, 0.0000000000000000000, 0.0000000000000000000 ) ) ;
#290 = ORIENTED_EDGE ( 'NONE', *, *, #78, .T. ) ;
#291 =( NAMED_UNIT ( * ) PLANE_ANGLE_UNIT ( ) SI_UNIT ( $, .RADIAN. ) );
#292 = ORIENTED_EDGE ( 'NONE', *, *, #185, .F. ) ;
#293 = STYLED_ITEM ( 'NONE', ( #139 ), #30 ) ;
#294 = CARTESIAN_POINT ( 'NONE',  ( 3.875000000000000444, 0.0000000000000000000, 0.0000000000000000000 ) ) ;
#295 = AXIS2_PLACEMENT_3D ( 'NONE', #297, #152, #251 ) ;
#296 = DIRECTION ( 'NONE',  ( -1.000000000000000000, -0.0000000000000000000, -0.0000000000000000000 ) ) ;
#297 = CARTESIAN_POINT ( 'NONE',  ( 0.0000000000000000000, 0.0000000000000000000, 0.0000000000000000000 ) ) ;
#298 = ORIENTED_EDGE ( 'NONE', *, *, #110, .T. ) ;
#299 = DIRECTION ( 'NONE',  ( 0.0000000000000000000, 0.0000000000000000000, -1.000000000000000000 ) ) ;
#300 = ORIENTED_EDGE ( 'NONE', *, *, #63, .F. ) ;
#301 = PRESENTATION_STYLE_ASSIGNMENT (( #183 ) ) ;
#302 = SURFACE_SIDE_STYLE ('',( #117 ) ) ;
#303 = PLANE ( 'NONE',  #191 ) ;
ENDSEC;
END-ISO-10303-21;
