ISO-10303-21;
HEADER;
FILE_DESCRIPTION (( 'STEP AP214' ),
    '1' );
FILE_NAME ('3AC-8.STEP',
    '2020-10-26T23:42:52',
    ( '' ),
    ( '' ),
    'SwSTEP 2.0',
    'SolidWorks 2019',
    '' );
FILE_SCHEMA (( 'AUTOMOTIVE_DESIGN' ));
ENDSEC;

DATA;
#1 = STYLED_ITEM ( 'NONE', ( #332 ), #184 ) ;
#2 = FACE_OUTER_BOUND ( 'NONE', #226, .T. ) ;
#3 =( NAMED_UNIT ( * ) SI_UNIT ( $, .STERADIAN. ) SOLID_ANGLE_UNIT ( ) );
#4 = CARTESIAN_POINT ( 'NONE',  ( 0.3125000000000005551, 5.051668046482830778E-16, -4.124999999999999112 ) ) ;
#5 = APPLICATION_CONTEXT ( 'automotive_design' ) ;
#6 = CIRCLE ( 'NONE', #254, 1.999999999999999778 ) ;
#7 = CARTESIAN_POINT ( 'NONE',  ( 9.375000000000000000, 0.0000000000000000000, -1.515625000000000000 ) ) ;
#8 = CARTESIAN_POINT ( 'NONE',  ( 3.875000000000000444, 0.0000000000000000000, 0.0000000000000000000 ) ) ;
#9 = CARTESIAN_POINT ( 'NONE',  ( 3.875000000000000444, 2.449293598294705921E-16, -1.999999999999999778 ) ) ;
#10 = CIRCLE ( 'NONE', #116, 4.124999999999999112 ) ;
#11 = COLOUR_RGB ( '',0.7921568627450980005, 0.8196078431372548767, 0.9333333333333333481 ) ;
#12 = EDGE_CURVE ( 'NONE', #22, #294, #139, .T. ) ;
#13 = DIRECTION ( 'NONE',  ( -1.000000000000000000, -0.0000000000000000000, -0.0000000000000000000 ) ) ;
#14 = UNCERTAINTY_MEASURE_WITH_UNIT (LENGTH_MEASURE( 1.000000000000000082E-05 ), #129, 'distance_accuracy_value', 'NONE');
#15 = ORIENTED_EDGE ( 'NONE', *, *, #101, .F. ) ;
#16 = FACE_OUTER_BOUND ( 'NONE', #200, .T. ) ;
#17 = ORIENTED_EDGE ( 'NONE', *, *, #381, .T. ) ;
#18 = VECTOR ( 'NONE', #289, 39.37007874015748143 ) ;
#19 = EDGE_LOOP ( 'NONE', ( #375, #173, #120, #15 ) ) ;
#20 = DIRECTION ( 'NONE',  ( -1.000000000000000000, -0.0000000000000000000, -0.0000000000000000000 ) ) ;
#21 = VECTOR ( 'NONE', #229, 39.37007874015748143 ) ;
#22 = VERTEX_POINT ( 'NONE', #315 ) ;
#23 = CARTESIAN_POINT ( 'NONE',  ( 0.0000000000000000000, 0.0000000000000000000, 0.0000000000000000000 ) ) ;
#24 = CARTESIAN_POINT ( 'NONE',  ( 0.3125000000000005551, 0.0000000000000000000, 0.0000000000000000000 ) ) ;
#25 = EDGE_LOOP ( 'NONE', ( #145, #260, #251, #80 ) ) ;
#26 = ORIENTED_EDGE ( 'NONE', *, *, #364, .T. ) ;
#27 = CARTESIAN_POINT ( 'NONE',  ( 9.375000000000000000, 0.0000000000000000000, 0.0000000000000000000 ) ) ;
#28 = EDGE_LOOP ( 'NONE', ( #170, #312, #351, #89 ) ) ;
#29 = DIRECTION ( 'NONE',  ( -1.000000000000000000, 0.0000000000000000000, -0.0000000000000000000 ) ) ;
#30 = AXIS2_PLACEMENT_3D ( 'NONE', #324, #213, #62 ) ;
#31 = CARTESIAN_POINT ( 'NONE',  ( 0.0000000000000000000, 5.051668046482831764E-16, -4.125000000000000000 ) ) ;
#32 = EDGE_CURVE ( 'NONE', #227, #168, #93, .T. ) ;
#33 = FACE_OUTER_BOUND ( 'NONE', #86, .T. ) ;
#34 = DIRECTION ( 'NONE',  ( 0.0000000000000000000, 0.0000000000000000000, -1.000000000000000000 ) ) ;
#35 = CARTESIAN_POINT ( 'NONE',  ( 9.375000000000000000, 0.0000000000000000000, 2.000000000000000000 ) ) ;
#36 = DIRECTION ( 'NONE',  ( 0.0000000000000000000, 0.0000000000000000000, -1.000000000000000000 ) ) ;
#37 = DIRECTION ( 'NONE',  ( 0.0000000000000000000, 0.0000000000000000000, -1.000000000000000000 ) ) ;
#38 = LINE ( 'NONE', #240, #162 ) ;
#39 = SURFACE_STYLE_FILL_AREA ( #302 ) ;
#40 = DIRECTION ( 'NONE',  ( 1.000000000000000000, -0.0000000000000000000, -0.0000000000000000000 ) ) ;
#41 = AXIS2_PLACEMENT_3D ( 'NONE', #347, #20, #258 ) ;
#42 = EDGE_CURVE ( 'NONE', #342, #369, #349, .T. ) ;
#43 = CIRCLE ( 'NONE', #211, 1.515625000000000000 ) ;
#44 = CARTESIAN_POINT ( 'NONE',  ( 3.875000000000000444, 0.0000000000000000000, 1.999999999999999778 ) ) ;
#45 = SURFACE_SIDE_STYLE ('',( #337 ) ) ;
#46 =( CONVERSION_BASED_UNIT ( 'INCH', #311 ) LENGTH_UNIT ( ) NAMED_UNIT ( #336 ) );
#47 = PRODUCT_DEFINITION_CONTEXT ( 'detailed design', #5, 'design' ) ;
#48 = ORIENTED_EDGE ( 'NONE', *, *, #327, .T. ) ;
#49 = ORIENTED_EDGE ( 'NONE', *, *, #309, .T. ) ;
#50 = ORIENTED_EDGE ( 'NONE', *, *, #256, .F. ) ;
#51 = DIRECTION ( 'NONE',  ( 0.0000000000000000000, 0.0000000000000000000, 1.000000000000000000 ) ) ;
#52 = ADVANCED_FACE ( 'NONE', ( #317 ), #54, .T. ) ;
#53 = AXIS2_PLACEMENT_3D ( 'NONE', #366, #368, #284 ) ;
#54 = CYLINDRICAL_SURFACE ( 'NONE', #85, 4.000000000000000000 ) ;
#55 = PRESENTATION_LAYER_ASSIGNMENT (  '', '', ( #1 ) ) ;
#56 = DIRECTION ( 'NONE',  ( 0.0000000000000000000, 0.0000000000000000000, -1.000000000000000000 ) ) ;
#57 = ORIENTED_EDGE ( 'NONE', *, *, #313, .F. ) ;
#58 = DIRECTION ( 'NONE',  ( 0.0000000000000000000, 0.0000000000000000000, 1.000000000000000000 ) ) ;
#59 = ORIENTED_EDGE ( 'NONE', *, *, #278, .T. ) ;
#60 = ORIENTED_EDGE ( 'NONE', *, *, #165, .F. ) ;
#61 = CARTESIAN_POINT ( 'NONE',  ( 0.0000000000000000000, 0.0000000000000000000, -1.515625000000000000 ) ) ;
#62 = DIRECTION ( 'NONE',  ( 0.0000000000000000000, 0.0000000000000000000, -1.000000000000000000 ) ) ;
#63 = AXIS2_PLACEMENT_3D ( 'NONE', #8, #73, #246 ) ;
#64 = CYLINDRICAL_SURFACE ( 'NONE', #72, 2.000000000000000000 ) ;
#65 = CARTESIAN_POINT ( 'NONE',  ( 9.375000000000000000, 0.0000000000000000000, 0.0000000000000000000 ) ) ;
#66 = DIRECTION ( 'NONE',  ( 0.0000000000000000000, 0.0000000000000000000, 1.000000000000000000 ) ) ;
#67 =( NAMED_UNIT ( * ) PLANE_ANGLE_UNIT ( ) SI_UNIT ( $, .RADIAN. ) );
#68 = CIRCLE ( 'NONE', #202, 4.125000000000000000 ) ;
#69 = PRODUCT_DEFINITION_FORMATION_WITH_SPECIFIED_SOURCE ( 'ANY', '', #321, .NOT_KNOWN. ) ;
#70 = CARTESIAN_POINT ( 'NONE',  ( 0.0000000000000000000, 0.0000000000000000000, 0.0000000000000000000 ) ) ;
#71 = EDGE_CURVE ( 'NONE', #22, #352, #100, .T. ) ;
#72 = AXIS2_PLACEMENT_3D ( 'NONE', #310, #108, #133 ) ;
#73 = DIRECTION ( 'NONE',  ( -1.000000000000000000, -0.0000000000000000000, -0.0000000000000000000 ) ) ;
#74 = SURFACE_STYLE_USAGE ( .BOTH. , #45 ) ;
#75 = ADVANCED_FACE ( 'NONE', ( #235, #123 ), #127, .F. ) ;
#76 = CARTESIAN_POINT ( 'NONE',  ( 0.3125000000000005551, 4.898587196589412829E-16, -4.000000000000000000 ) ) ;
#77 = AXIS2_PLACEMENT_3D ( 'NONE', #281, #134, #250 ) ;
#78 = VERTEX_POINT ( 'NONE', #358 ) ;
#79 = ORIENTED_EDGE ( 'NONE', *, *, #381, .F. ) ;
#80 = ORIENTED_EDGE ( 'NONE', *, *, #373, .F. ) ;
#81 =( NAMED_UNIT ( * ) SI_UNIT ( $, .STERADIAN. ) SOLID_ANGLE_UNIT ( ) );
#82 = PRODUCT_DEFINITION_SHAPE ( 'NONE', 'NONE',  #136 ) ;
#83 = DIRECTION ( 'NONE',  ( -1.000000000000000000, -0.0000000000000000000, -0.0000000000000000000 ) ) ;
#84 = LENGTH_MEASURE_WITH_UNIT ( LENGTH_MEASURE( 0.02539999999999999897 ), #171 );
#85 = AXIS2_PLACEMENT_3D ( 'NONE', #291, #174, #97 ) ;
#86 = EDGE_LOOP ( 'NONE', ( #285, #113, #223, #79 ) ) ;
#87 = DIRECTION ( 'NONE',  ( -1.000000000000000000, -0.0000000000000000000, -0.0000000000000000000 ) ) ;
#88 = ORIENTED_EDGE ( 'NONE', *, *, #71, .F. ) ;
#89 = ORIENTED_EDGE ( 'NONE', *, *, #12, .F. ) ;
#90 = DIRECTION ( 'NONE',  ( -0.0000000000000000000, 0.0000000000000000000, 1.000000000000000000 ) ) ;
#91 = CARTESIAN_POINT ( 'NONE',  ( 3.875000000000000444, 4.898587196589412829E-16, -4.000000000000000000 ) ) ;
#92 = CARTESIAN_POINT ( 'NONE',  ( 0.0000000000000000000, 0.0000000000000000000, 0.0000000000000000000 ) ) ;
#93 = CIRCLE ( 'NONE', #41, 2.000000000000000000 ) ;
#94 = CYLINDRICAL_SURFACE ( 'NONE', #325, 1.515625000000000000 ) ;
#95 = LINE ( 'NONE', #237, #104 ) ;
#96 = ADVANCED_FACE ( 'NONE', ( #152, #2 ), #124, .F. ) ;
#97 = DIRECTION ( 'NONE',  ( 0.0000000000000000000, 0.0000000000000000000, 1.000000000000000000 ) ) ;
#98 = DIRECTION ( 'NONE',  ( 0.0000000000000000000, 0.0000000000000000000, 1.000000000000000000 ) ) ;
#99 = FACE_OUTER_BOUND ( 'NONE', #197, .T. ) ;
#100 = CIRCLE ( 'NONE', #232, 4.000000000000000000 ) ;
#101 = EDGE_CURVE ( 'NONE', #206, #294, #356, .T. ) ;
#102 = FACE_OUTER_BOUND ( 'NONE', #110, .T. ) ;
#103 = CARTESIAN_POINT ( 'NONE',  ( 9.375000000000000000, 2.449293598294706414E-16, -2.000000000000000000 ) ) ;
#104 = VECTOR ( 'NONE', #354, 39.37007874015748143 ) ;
#105 = AXIS2_PLACEMENT_3D ( 'NONE', #23, #318, #112 ) ;
#106 = FACE_BOUND ( 'NONE', #135, .T. ) ;
#107 = PRODUCT_RELATED_PRODUCT_CATEGORY ( 'part', '', ( #321 ) ) ;
#108 = DIRECTION ( 'NONE',  ( -1.000000000000000000, -0.0000000000000000000, -0.0000000000000000000 ) ) ;
#109 = EDGE_LOOP ( 'NONE', ( #264, #371, #17, #50 ) ) ;
#110 = EDGE_LOOP ( 'NONE', ( #175, #268, #49, #142 ) ) ;
#111 = ORIENTED_EDGE ( 'NONE', *, *, #276, .F. ) ;
#112 = DIRECTION ( 'NONE',  ( 1.000000000000000000, 0.0000000000000000000, 0.0000000000000000000 ) ) ;
#113 = ORIENTED_EDGE ( 'NONE', *, *, #125, .T. ) ;
#114 = DIRECTION ( 'NONE',  ( -1.000000000000000000, -0.0000000000000000000, -0.0000000000000000000 ) ) ;
#115 = LINE ( 'NONE', #345, #219 ) ;
#116 = AXIS2_PLACEMENT_3D ( 'NONE', #128, #306, #363 ) ;
#117 = ORIENTED_EDGE ( 'NONE', *, *, #334, .F. ) ;
#118 = ORIENTED_EDGE ( 'NONE', *, *, #355, .F. ) ;
#119 = CARTESIAN_POINT ( 'NONE',  ( 0.0000000000000000000, 0.0000000000000000000, 0.0000000000000000000 ) ) ;
#120 = ORIENTED_EDGE ( 'NONE', *, *, #12, .T. ) ;
#121 = CYLINDRICAL_SURFACE ( 'NONE', #244, 4.124999999999999112 ) ;
#122 = DIRECTION ( 'NONE',  ( 1.000000000000000000, 0.0000000000000000000, 0.0000000000000000000 ) ) ;
#123 = FACE_BOUND ( 'NONE', #293, .T. ) ;
#124 = PLANE ( 'NONE',  #172 ) ;
#125 = EDGE_CURVE ( 'NONE', #227, #252, #95, .T. ) ;
#126 = AXIS2_PLACEMENT_3D ( 'NONE', #348, #374, #51 ) ;
#127 = PLANE ( 'NONE',  #195 ) ;
#128 = CARTESIAN_POINT ( 'NONE',  ( 0.3125000000000005551, 0.0000000000000000000, 0.0000000000000000000 ) ) ;
#129 =( CONVERSION_BASED_UNIT ( 'INCH', #241 ) LENGTH_UNIT ( ) NAMED_UNIT ( #163 ) );
#130 = ADVANCED_FACE ( 'NONE', ( #272 ), #301, .T. ) ;
#131 = CARTESIAN_POINT ( 'NONE',  ( 3.875000000000000444, 0.0000000000000000000, 0.0000000000000000000 ) ) ;
#132 = CYLINDRICAL_SURFACE ( 'NONE', #282, 1.515625000000000000 ) ;
#133 = DIRECTION ( 'NONE',  ( 0.0000000000000000000, 0.0000000000000000000, 1.000000000000000000 ) ) ;
#134 = DIRECTION ( 'NONE',  ( -1.000000000000000000, 0.0000000000000000000, -0.0000000000000000000 ) ) ;
#135 = EDGE_LOOP ( 'NONE', ( #48, #322 ) ) ;
#136 = PRODUCT_DEFINITION ( 'UNKNOWN', '', #69, #47 ) ;
#137 = CARTESIAN_POINT ( 'NONE',  ( 0.0000000000000000000, 0.0000000000000000000, 0.0000000000000000000 ) ) ;
#138 = UNCERTAINTY_MEASURE_WITH_UNIT (LENGTH_MEASURE( 1.000000000000000082E-05 ), #46, 'distance_accuracy_value', 'NONE');
#139 = LINE ( 'NONE', #344, #18 ) ;
#140 = AXIS2_PLACEMENT_3D ( 'NONE', #182, #379, #37 ) ;
#141 = VECTOR ( 'NONE', #231, 39.37007874015748143 ) ;
#142 = ORIENTED_EDGE ( 'NONE', *, *, #355, .T. ) ;
#143 = EDGE_LOOP ( 'NONE', ( #376, #26 ) ) ;
#144 = ORIENTED_EDGE ( 'NONE', *, *, #165, .T. ) ;
#145 = ORIENTED_EDGE ( 'NONE', *, *, #276, .T. ) ;
#146 = SHAPE_DEFINITION_REPRESENTATION ( #82, #184 ) ;
#147 = LINE ( 'NONE', #177, #141 ) ;
#148 = ORIENTED_EDGE ( 'NONE', *, *, #150, .T. ) ;
#149 = EDGE_LOOP ( 'NONE', ( #88, #204 ) ) ;
#150 = EDGE_CURVE ( 'NONE', #369, #342, #68, .T. ) ;
#151 = DIRECTION ( 'NONE',  ( 1.000000000000000000, 0.0000000000000000000, 0.0000000000000000000 ) ) ;
#152 = FACE_BOUND ( 'NONE', #198, .T. ) ;
#153 = CARTESIAN_POINT ( 'NONE',  ( 0.0000000000000000000, 0.0000000000000000000, 0.0000000000000000000 ) ) ;
#154 = FACE_BOUND ( 'NONE', #143, .T. ) ;
#155 = FACE_OUTER_BOUND ( 'NONE', #286, .T. ) ;
#156 = DIRECTION ( 'NONE',  ( 1.000000000000000000, -0.0000000000000000000, -0.0000000000000000000 ) ) ;
#157 = CIRCLE ( 'NONE', #53, 1.515625000000000000 ) ;
#158 = CIRCLE ( 'NONE', #238, 4.000000000000000000 ) ;
#159 = SURFACE_STYLE_USAGE ( .BOTH. , #185 ) ;
#160 = CARTESIAN_POINT ( 'NONE',  ( 0.3125000000000005551, 0.0000000000000000000, 0.0000000000000000000 ) ) ;
#161 = FILL_AREA_STYLE_COLOUR ( '', #11 ) ;
#162 = VECTOR ( 'NONE', #214, 39.37007874015748143 ) ;
#163 = DIMENSIONAL_EXPONENTS ( 1.000000000000000000, 0.0000000000000000000, 0.0000000000000000000, 0.0000000000000000000, 0.0000000000000000000, 0.0000000000000000000, 0.0000000000000000000 ) ;
#164 = DIRECTION ( 'NONE',  ( 0.0000000000000000000, 0.0000000000000000000, 1.000000000000000000 ) ) ;
#165 = EDGE_CURVE ( 'NONE', #205, #257, #178, .T. ) ;
#166 = UNCERTAINTY_MEASURE_WITH_UNIT (LENGTH_MEASURE( 1.000000000000000082E-05 ), #296, 'distance_accuracy_value', 'NONE');
#167 = ADVANCED_FACE ( 'NONE', ( #154, #274 ), #242, .F. ) ;
#168 = VERTEX_POINT ( 'NONE', #35 ) ;
#169 = ORIENTED_EDGE ( 'NONE', *, *, #309, .F. ) ;
#170 = ORIENTED_EDGE ( 'NONE', *, *, #71, .T. ) ;
#171 =( LENGTH_UNIT ( ) NAMED_UNIT ( * ) SI_UNIT ( $, .METRE. ) );
#172 = AXIS2_PLACEMENT_3D ( 'NONE', #65, #29, #212 ) ;
#173 = ORIENTED_EDGE ( 'NONE', *, *, #287, .T. ) ;
#174 = DIRECTION ( 'NONE',  ( -1.000000000000000000, -0.0000000000000000000, -0.0000000000000000000 ) ) ;
#175 = ORIENTED_EDGE ( 'NONE', *, *, #283, .F. ) ;
#176 = ORIENTED_EDGE ( 'NONE', *, *, #283, .T. ) ;
#177 = CARTESIAN_POINT ( 'NONE',  ( 0.0000000000000000000, 5.051668046482830778E-16, -4.124999999999999112 ) ) ;
#178 = CIRCLE ( 'NONE', #30, 1.515625000000000000 ) ;
#179 = CARTESIAN_POINT ( 'NONE',  ( 0.0000000000000000000, 0.0000000000000000000, 0.0000000000000000000 ) ) ;
#180 =( NAMED_UNIT ( * ) PLANE_ANGLE_UNIT ( ) SI_UNIT ( $, .RADIAN. ) );
#181 = DIRECTION ( 'NONE',  ( -1.000000000000000000, -0.0000000000000000000, -0.0000000000000000000 ) ) ;
#182 = CARTESIAN_POINT ( 'NONE',  ( 0.0000000000000000000, 3.999999999999999556, 0.0000000000000000000 ) ) ;
#183 = DIRECTION ( 'NONE',  ( 1.000000000000000000, -0.0000000000000000000, -0.0000000000000000000 ) ) ;
#184 = ADVANCED_BREP_SHAPE_REPRESENTATION ( '3AC-8', ( #224, #105 ), #186 ) ;
#185 = SURFACE_SIDE_STYLE ('',( #39 ) ) ;
#186 =( GEOMETRIC_REPRESENTATION_CONTEXT ( 3 ) GLOBAL_UNCERTAINTY_ASSIGNED_CONTEXT ( ( #166 ) ) GLOBAL_UNIT_ASSIGNED_CONTEXT ( ( #296, #180, #81 ) ) REPRESENTATION_CONTEXT ( 'NONE', 'WORKASPACE' ) );
#187 = DIRECTION ( 'NONE',  ( 1.000000000000000000, -0.0000000000000000000, -0.0000000000000000000 ) ) ;
#188 = DIRECTION ( 'NONE',  ( 0.0000000000000000000, 0.0000000000000000000, -1.000000000000000000 ) ) ;
#189 = AXIS2_PLACEMENT_3D ( 'NONE', #380, #199, #58 ) ;
#190 = ADVANCED_FACE ( 'NONE', ( #155 ), #121, .T. ) ;
#191 = LINE ( 'NONE', #308, #280 ) ;
#192 = PRESENTATION_STYLE_ASSIGNMENT (( #74 ) ) ;
#193 = PLANE ( 'NONE',  #77 ) ;
#194 = ADVANCED_FACE ( 'NONE', ( #33 ), #64, .T. ) ;
#195 = AXIS2_PLACEMENT_3D ( 'NONE', #299, #298, #90 ) ;
#196 = ORIENTED_EDGE ( 'NONE', *, *, #42, .T. ) ;
#197 = EDGE_LOOP ( 'NONE', ( #346, #176, #144, #169 ) ) ;
#198 = EDGE_LOOP ( 'NONE', ( #118, #60 ) ) ;
#199 = DIRECTION ( 'NONE',  ( -1.000000000000000000, -0.0000000000000000000, -0.0000000000000000000 ) ) ;
#200 = EDGE_LOOP ( 'NONE', ( #111, #57 ) ) ;
#201 = DIRECTION ( 'NONE',  ( 0.0000000000000000000, 0.0000000000000000000, 1.000000000000000000 ) ) ;
#202 = AXIS2_PLACEMENT_3D ( 'NONE', #92, #269, #207 ) ;
#203 = ADVANCED_FACE ( 'NONE', ( #221 ), #249, .T. ) ;
#204 = ORIENTED_EDGE ( 'NONE', *, *, #287, .F. ) ;
#205 = VERTEX_POINT ( 'NONE', #343 ) ;
#206 = VERTEX_POINT ( 'NONE', #76 ) ;
#207 = DIRECTION ( 'NONE',  ( 0.0000000000000000000, 0.0000000000000000000, 1.000000000000000000 ) ) ;
#208 = ADVANCED_FACE ( 'NONE', ( #16, #106 ), #193, .F. ) ;
#209 = CYLINDRICAL_SURFACE ( 'NONE', #126, 4.124999999999999112 ) ;
#210 = AXIS2_PLACEMENT_3D ( 'NONE', #160, #331, #66 ) ;
#211 = AXIS2_PLACEMENT_3D ( 'NONE', #27, #122, #34 ) ;
#212 = DIRECTION ( 'NONE',  ( -0.0000000000000000000, 0.0000000000000000000, 1.000000000000000000 ) ) ;
#213 = DIRECTION ( 'NONE',  ( 1.000000000000000000, 0.0000000000000000000, 0.0000000000000000000 ) ) ;
#214 = DIRECTION ( 'NONE',  ( -1.000000000000000000, -0.0000000000000000000, -0.0000000000000000000 ) ) ;
#215 = DIRECTION ( 'NONE',  ( 0.0000000000000000000, 0.0000000000000000000, 1.000000000000000000 ) ) ;
#216 = LINE ( 'NONE', #329, #370 ) ;
#217 = EDGE_CURVE ( 'NONE', #378, #78, #157, .T. ) ;
#218 = AXIS2_PLACEMENT_3D ( 'NONE', #295, #328, #382 ) ;
#219 = VECTOR ( 'NONE', #87, 39.37007874015748143 ) ;
#220 = FILL_AREA_STYLE_COLOUR ( '', #247 ) ;
#221 = FACE_OUTER_BOUND ( 'NONE', #28, .T. ) ;
#222 = FILL_AREA_STYLE ('',( #220 ) ) ;
#223 = ORIENTED_EDGE ( 'NONE', *, *, #278, .F. ) ;
#224 = MANIFOLD_SOLID_BREP ( 'Revolve2', #362 ) ;
#225 = CIRCLE ( 'NONE', #63, 1.999999999999999778 ) ;
#226 = EDGE_LOOP ( 'NONE', ( #117, #314 ) ) ;
#227 = VERTEX_POINT ( 'NONE', #103 ) ;
#228 = APPLICATION_PROTOCOL_DEFINITION ( 'draft international standard', 'automotive_design', 1998, #5 ) ;
#229 = DIRECTION ( 'NONE',  ( -1.000000000000000000, -0.0000000000000000000, -0.0000000000000000000 ) ) ;
#230 = VERTEX_POINT ( 'NONE', #44 ) ;
#231 = DIRECTION ( 'NONE',  ( -1.000000000000000000, -0.0000000000000000000, -0.0000000000000000000 ) ) ;
#232 = AXIS2_PLACEMENT_3D ( 'NONE', #353, #271, #239 ) ;
#233 = VERTEX_POINT ( 'NONE', #335 ) ;
#234 = ORIENTED_EDGE ( 'NONE', *, *, #373, .T. ) ;
#235 = FACE_OUTER_BOUND ( 'NONE', #149, .T. ) ;
#236 = FACE_OUTER_BOUND ( 'NONE', #25, .T. ) ;
#237 = CARTESIAN_POINT ( 'NONE',  ( 0.0000000000000000000, 2.449293598294706414E-16, -2.000000000000000000 ) ) ;
#238 = AXIS2_PLACEMENT_3D ( 'NONE', #24, #114, #323 ) ;
#239 = DIRECTION ( 'NONE',  ( 0.0000000000000000000, 0.0000000000000000000, 1.000000000000000000 ) ) ;
#240 = CARTESIAN_POINT ( 'NONE',  ( 0.0000000000000000000, 4.898587196589412829E-16, -4.000000000000000000 ) ) ;
#241 = LENGTH_MEASURE_WITH_UNIT ( LENGTH_MEASURE( 0.02539999999999999897 ), #277 );
#242 = PLANE ( 'NONE',  #140 ) ;
#243 =( NAMED_UNIT ( * ) PLANE_ANGLE_UNIT ( ) SI_UNIT ( $, .RADIAN. ) );
#244 = AXIS2_PLACEMENT_3D ( 'NONE', #179, #383, #326 ) ;
#245 = APPLICATION_CONTEXT ( 'automotive_design' ) ;
#246 = DIRECTION ( 'NONE',  ( 0.0000000000000000000, 0.0000000000000000000, 1.000000000000000000 ) ) ;
#247 = COLOUR_RGB ( '',0.7921568627450980005, 0.8196078431372548767, 0.9333333333333333481 ) ;
#248 = CIRCLE ( 'NONE', #357, 1.515625000000000000 ) ;
#249 = CYLINDRICAL_SURFACE ( 'NONE', #267, 4.000000000000000000 ) ;
#250 = DIRECTION ( 'NONE',  ( -0.0000000000000000000, 0.0000000000000000000, 1.000000000000000000 ) ) ;
#251 = ORIENTED_EDGE ( 'NONE', *, *, #150, .F. ) ;
#252 = VERTEX_POINT ( 'NONE', #9 ) ;
#253 = PRODUCT_CONTEXT ( 'NONE', #245, 'mechanical' ) ;
#254 = AXIS2_PLACEMENT_3D ( 'NONE', #131, #304, #164 ) ;
#255 =( GEOMETRIC_REPRESENTATION_CONTEXT ( 3 ) GLOBAL_UNCERTAINTY_ASSIGNED_CONTEXT ( ( #14 ) ) GLOBAL_UNIT_ASSIGNED_CONTEXT ( ( #129, #67, #3 ) ) REPRESENTATION_CONTEXT ( 'NONE', 'WORKASPACE' ) );
#256 = EDGE_CURVE ( 'NONE', #252, #230, #6, .T. ) ;
#257 = VERTEX_POINT ( 'NONE', #7 ) ;
#258 = DIRECTION ( 'NONE',  ( 0.0000000000000000000, 0.0000000000000000000, 1.000000000000000000 ) ) ;
#259 = APPLICATION_PROTOCOL_DEFINITION ( 'draft international standard', 'automotive_design', 1998, #245 ) ;
#260 = ORIENTED_EDGE ( 'NONE', *, *, #340, .T. ) ;
#261 = ORIENTED_EDGE ( 'NONE', *, *, #340, .F. ) ;
#262 = DIMENSIONAL_EXPONENTS ( 1.000000000000000000, 0.0000000000000000000, 0.0000000000000000000, 0.0000000000000000000, 0.0000000000000000000, 0.0000000000000000000, 0.0000000000000000000 ) ;
#263 = EDGE_LOOP ( 'NONE', ( #148, #196 ) ) ;
#264 = ORIENTED_EDGE ( 'NONE', *, *, #125, .F. ) ;
#265 = LINE ( 'NONE', #270, #21 ) ;
#266 = ADVANCED_FACE ( 'NONE', ( #102 ), #132, .F. ) ;
#267 = AXIS2_PLACEMENT_3D ( 'NONE', #137, #13, #338 ) ;
#268 = ORIENTED_EDGE ( 'NONE', *, *, #217, .F. ) ;
#269 = DIRECTION ( 'NONE',  ( -1.000000000000000000, -0.0000000000000000000, -0.0000000000000000000 ) ) ;
#270 = CARTESIAN_POINT ( 'NONE',  ( 0.0000000000000000000, 0.0000000000000000000, 4.124999999999999112 ) ) ;
#271 = DIRECTION ( 'NONE',  ( -1.000000000000000000, -0.0000000000000000000, -0.0000000000000000000 ) ) ;
#272 = FACE_OUTER_BOUND ( 'NONE', #109, .T. ) ;
#273 = MECHANICAL_DESIGN_GEOMETRIC_PRESENTATION_REPRESENTATION (  '', ( #1 ), #255 ) ;
#274 = FACE_OUTER_BOUND ( 'NONE', #263, .T. ) ;
#275 = CARTESIAN_POINT ( 'NONE',  ( 3.875000000000000444, 0.0000000000000000000, 0.0000000000000000000 ) ) ;
#276 = EDGE_CURVE ( 'NONE', #233, #292, #10, .T. ) ;
#277 =( LENGTH_UNIT ( ) NAMED_UNIT ( * ) SI_UNIT ( $, .METRE. ) );
#278 = EDGE_CURVE ( 'NONE', #230, #252, #225, .T. ) ;
#279 = CIRCLE ( 'NONE', #333, 4.000000000000000000 ) ;
#280 = VECTOR ( 'NONE', #156, 39.37007874015748143 ) ;
#281 = CARTESIAN_POINT ( 'NONE',  ( 0.3125000000000005551, 4.000000000000000000, 0.0000000000000000000 ) ) ;
#282 = AXIS2_PLACEMENT_3D ( 'NONE', #70, #40, #188 ) ;
#283 = EDGE_CURVE ( 'NONE', #78, #205, #191, .T. ) ;
#284 = DIRECTION ( 'NONE',  ( 0.0000000000000000000, 0.0000000000000000000, -1.000000000000000000 ) ) ;
#285 = ORIENTED_EDGE ( 'NONE', *, *, #334, .T. ) ;
#286 = EDGE_LOOP ( 'NONE', ( #261, #290, #234, #288 ) ) ;
#287 = EDGE_CURVE ( 'NONE', #352, #22, #279, .T. ) ;
#288 = ORIENTED_EDGE ( 'NONE', *, *, #42, .F. ) ;
#289 = DIRECTION ( 'NONE',  ( -1.000000000000000000, -0.0000000000000000000, -0.0000000000000000000 ) ) ;
#290 = ORIENTED_EDGE ( 'NONE', *, *, #313, .T. ) ;
#291 = CARTESIAN_POINT ( 'NONE',  ( 0.0000000000000000000, 0.0000000000000000000, 0.0000000000000000000 ) ) ;
#292 = VERTEX_POINT ( 'NONE', #4 ) ;
#293 = EDGE_LOOP ( 'NONE', ( #59, #316 ) ) ;
#294 = VERTEX_POINT ( 'NONE', #361 ) ;
#295 = CARTESIAN_POINT ( 'NONE',  ( 0.3125000000000005551, 0.0000000000000000000, 0.0000000000000000000 ) ) ;
#296 =( CONVERSION_BASED_UNIT ( 'INCH', #84 ) LENGTH_UNIT ( ) NAMED_UNIT ( #262 ) );
#297 = STYLED_ITEM ( 'NONE', ( #192 ), #224 ) ;
#298 = DIRECTION ( 'NONE',  ( -1.000000000000000000, 0.0000000000000000000, -0.0000000000000000000 ) ) ;
#299 = CARTESIAN_POINT ( 'NONE',  ( 3.875000000000000444, 1.999999999999999778, 0.0000000000000000000 ) ) ;
#300 = ADVANCED_FACE ( 'NONE', ( #99 ), #94, .F. ) ;
#301 = CYLINDRICAL_SURFACE ( 'NONE', #307, 2.000000000000000000 ) ;
#302 = FILL_AREA_STYLE ('',( #161 ) ) ;
#303 = MECHANICAL_DESIGN_GEOMETRIC_PRESENTATION_REPRESENTATION (  '', ( #297 ), #341 ) ;
#304 = DIRECTION ( 'NONE',  ( -1.000000000000000000, -0.0000000000000000000, -0.0000000000000000000 ) ) ;
#305 = EDGE_CURVE ( 'NONE', #352, #206, #38, .T. ) ;
#306 = DIRECTION ( 'NONE',  ( -1.000000000000000000, -0.0000000000000000000, -0.0000000000000000000 ) ) ;
#307 = AXIS2_PLACEMENT_3D ( 'NONE', #153, #181, #215 ) ;
#308 = CARTESIAN_POINT ( 'NONE',  ( 0.0000000000000000000, 1.856105304957707054E-16, 1.515625000000000000 ) ) ;
#309 = EDGE_CURVE ( 'NONE', #378, #257, #216, .T. ) ;
#310 = CARTESIAN_POINT ( 'NONE',  ( 0.0000000000000000000, 0.0000000000000000000, 0.0000000000000000000 ) ) ;
#311 = LENGTH_MEASURE_WITH_UNIT ( LENGTH_MEASURE( 0.02539999999999999897 ), #339 );
#312 = ORIENTED_EDGE ( 'NONE', *, *, #305, .T. ) ;
#313 = EDGE_CURVE ( 'NONE', #292, #233, #377, .T. ) ;
#314 = ORIENTED_EDGE ( 'NONE', *, *, #32, .F. ) ;
#315 = CARTESIAN_POINT ( 'NONE',  ( 3.875000000000000444, 0.0000000000000000000, 4.000000000000000000 ) ) ;
#316 = ORIENTED_EDGE ( 'NONE', *, *, #256, .T. ) ;
#317 = FACE_OUTER_BOUND ( 'NONE', #19, .T. ) ;
#318 = DIRECTION ( 'NONE',  ( 0.0000000000000000000, 0.0000000000000000000, 1.000000000000000000 ) ) ;
#319 = AXIS2_PLACEMENT_3D ( 'NONE', #372, #83, #201 ) ;
#320 = CIRCLE ( 'NONE', #189, 2.000000000000000000 ) ;
#321 = PRODUCT ( '3AC-8', '3AC-8', '', ( #253 ) ) ;
#322 = ORIENTED_EDGE ( 'NONE', *, *, #101, .T. ) ;
#323 = DIRECTION ( 'NONE',  ( 0.0000000000000000000, 0.0000000000000000000, 1.000000000000000000 ) ) ;
#324 = CARTESIAN_POINT ( 'NONE',  ( 9.375000000000000000, 0.0000000000000000000, 0.0000000000000000000 ) ) ;
#325 = AXIS2_PLACEMENT_3D ( 'NONE', #359, #187, #36 ) ;
#326 = DIRECTION ( 'NONE',  ( 0.0000000000000000000, 0.0000000000000000000, 1.000000000000000000 ) ) ;
#327 = EDGE_CURVE ( 'NONE', #294, #206, #158, .T. ) ;
#328 = DIRECTION ( 'NONE',  ( -1.000000000000000000, -0.0000000000000000000, -0.0000000000000000000 ) ) ;
#329 = CARTESIAN_POINT ( 'NONE',  ( 0.0000000000000000000, 0.0000000000000000000, -1.515625000000000000 ) ) ;
#330 =( NAMED_UNIT ( * ) SI_UNIT ( $, .STERADIAN. ) SOLID_ANGLE_UNIT ( ) );
#331 = DIRECTION ( 'NONE',  ( -1.000000000000000000, -0.0000000000000000000, -0.0000000000000000000 ) ) ;
#332 = PRESENTATION_STYLE_ASSIGNMENT (( #159 ) ) ;
#333 = AXIS2_PLACEMENT_3D ( 'NONE', #275, #360, #98 ) ;
#334 = EDGE_CURVE ( 'NONE', #168, #227, #320, .T. ) ;
#335 = CARTESIAN_POINT ( 'NONE',  ( 0.3125000000000005551, 0.0000000000000000000, 4.124999999999999112 ) ) ;
#336 = DIMENSIONAL_EXPONENTS ( 1.000000000000000000, 0.0000000000000000000, 0.0000000000000000000, 0.0000000000000000000, 0.0000000000000000000, 0.0000000000000000000, 0.0000000000000000000 ) ;
#337 = SURFACE_STYLE_FILL_AREA ( #222 ) ;
#338 = DIRECTION ( 'NONE',  ( 0.0000000000000000000, 0.0000000000000000000, 1.000000000000000000 ) ) ;
#339 =( LENGTH_UNIT ( ) NAMED_UNIT ( * ) SI_UNIT ( $, .METRE. ) );
#340 = EDGE_CURVE ( 'NONE', #292, #342, #147, .T. ) ;
#341 =( GEOMETRIC_REPRESENTATION_CONTEXT ( 3 ) GLOBAL_UNCERTAINTY_ASSIGNED_CONTEXT ( ( #138 ) ) GLOBAL_UNIT_ASSIGNED_CONTEXT ( ( #46, #243, #330 ) ) REPRESENTATION_CONTEXT ( 'NONE', 'WORKASPACE' ) );
#342 = VERTEX_POINT ( 'NONE', #31 ) ;
#343 = CARTESIAN_POINT ( 'NONE',  ( 9.375000000000000000, 1.856105304957707054E-16, 1.515625000000000000 ) ) ;
#344 = CARTESIAN_POINT ( 'NONE',  ( 0.0000000000000000000, 0.0000000000000000000, 4.000000000000000000 ) ) ;
#345 = CARTESIAN_POINT ( 'NONE',  ( 0.0000000000000000000, 0.0000000000000000000, 2.000000000000000000 ) ) ;
#346 = ORIENTED_EDGE ( 'NONE', *, *, #364, .F. ) ;
#347 = CARTESIAN_POINT ( 'NONE',  ( 9.375000000000000000, 0.0000000000000000000, 0.0000000000000000000 ) ) ;
#348 = CARTESIAN_POINT ( 'NONE',  ( 0.0000000000000000000, 0.0000000000000000000, 0.0000000000000000000 ) ) ;
#349 = CIRCLE ( 'NONE', #319, 4.125000000000000000 ) ;
#350 = CARTESIAN_POINT ( 'NONE',  ( 0.0000000000000000000, 0.0000000000000000000, 4.125000000000000000 ) ) ;
#351 = ORIENTED_EDGE ( 'NONE', *, *, #327, .F. ) ;
#352 = VERTEX_POINT ( 'NONE', #91 ) ;
#353 = CARTESIAN_POINT ( 'NONE',  ( 3.875000000000000444, 0.0000000000000000000, 0.0000000000000000000 ) ) ;
#354 = DIRECTION ( 'NONE',  ( -1.000000000000000000, -0.0000000000000000000, -0.0000000000000000000 ) ) ;
#355 = EDGE_CURVE ( 'NONE', #257, #205, #43, .T. ) ;
#356 = CIRCLE ( 'NONE', #218, 4.000000000000000000 ) ;
#357 = AXIS2_PLACEMENT_3D ( 'NONE', #119, #151, #56 ) ;
#358 = CARTESIAN_POINT ( 'NONE',  ( 0.0000000000000000000, 1.856105304957707054E-16, 1.515625000000000000 ) ) ;
#359 = CARTESIAN_POINT ( 'NONE',  ( 0.0000000000000000000, 0.0000000000000000000, 0.0000000000000000000 ) ) ;
#360 = DIRECTION ( 'NONE',  ( -1.000000000000000000, -0.0000000000000000000, -0.0000000000000000000 ) ) ;
#361 = CARTESIAN_POINT ( 'NONE',  ( 0.3125000000000005551, 0.0000000000000000000, 4.000000000000000000 ) ) ;
#362 = CLOSED_SHELL ( 'NONE', ( #367, #300, #194, #203, #52, #96, #130, #75, #167, #266, #190, #208 ) ) ;
#363 = DIRECTION ( 'NONE',  ( 0.0000000000000000000, 0.0000000000000000000, 1.000000000000000000 ) ) ;
#364 = EDGE_CURVE ( 'NONE', #78, #378, #248, .T. ) ;
#365 = PRESENTATION_LAYER_ASSIGNMENT (  '', '', ( #297 ) ) ;
#366 = CARTESIAN_POINT ( 'NONE',  ( 0.0000000000000000000, 0.0000000000000000000, 0.0000000000000000000 ) ) ;
#367 = ADVANCED_FACE ( 'NONE', ( #236 ), #209, .T. ) ;
#368 = DIRECTION ( 'NONE',  ( 1.000000000000000000, 0.0000000000000000000, 0.0000000000000000000 ) ) ;
#369 = VERTEX_POINT ( 'NONE', #350 ) ;
#370 = VECTOR ( 'NONE', #183, 39.37007874015748143 ) ;
#371 = ORIENTED_EDGE ( 'NONE', *, *, #32, .T. ) ;
#372 = CARTESIAN_POINT ( 'NONE',  ( 0.0000000000000000000, 0.0000000000000000000, 0.0000000000000000000 ) ) ;
#373 = EDGE_CURVE ( 'NONE', #233, #369, #265, .T. ) ;
#374 = DIRECTION ( 'NONE',  ( -1.000000000000000000, -0.0000000000000000000, -0.0000000000000000000 ) ) ;
#375 = ORIENTED_EDGE ( 'NONE', *, *, #305, .F. ) ;
#376 = ORIENTED_EDGE ( 'NONE', *, *, #217, .T. ) ;
#377 = CIRCLE ( 'NONE', #210, 4.124999999999999112 ) ;
#378 = VERTEX_POINT ( 'NONE', #61 ) ;
#379 = DIRECTION ( 'NONE',  ( 1.000000000000000000, 0.0000000000000000000, 0.0000000000000000000 ) ) ;
#380 = CARTESIAN_POINT ( 'NONE',  ( 9.375000000000000000, 0.0000000000000000000, 0.0000000000000000000 ) ) ;
#381 = EDGE_CURVE ( 'NONE', #168, #230, #115, .T. ) ;
#382 = DIRECTION ( 'NONE',  ( 0.0000000000000000000, 0.0000000000000000000, 1.000000000000000000 ) ) ;
#383 = DIRECTION ( 'NONE',  ( -1.000000000000000000, -0.0000000000000000000, -0.0000000000000000000 ) ) ;
ENDSEC;
END-ISO-10303-21;
