ISO-10303-21;
HEADER;
FILE_DESCRIPTION (( 'STEP AP214' ),
    '1' );
FILE_NAME ('3AC-6.STEP',
    '2020-10-26T23:42:08',
    ( '' ),
    ( '' ),
    'SwSTEP 2.0',
    'SolidWorks 2019',
    '' );
FILE_SCHEMA (( 'AUTOMOTIVE_DESIGN' ));
ENDSEC;

DATA;
#1 = DIRECTION ( 'NONE',  ( 1.000000000000000000, 0.0000000000000000000, 0.0000000000000000000 ) ) ;
#2 = PRODUCT ( '3AC-6', '3AC-6', '', ( #143 ) ) ;
#3 =( CONVERSION_BASED_UNIT ( 'INCH', #268 ) LENGTH_UNIT ( ) NAMED_UNIT ( #311 ) );
#4 = FILL_AREA_STYLE ('',( #189 ) ) ;
#5 =( NAMED_UNIT ( * ) SI_UNIT ( $, .STERADIAN. ) SOLID_ANGLE_UNIT ( ) );
#6 = CIRCLE ( 'NONE', #287, 3.124999999999999556 ) ;
#7 = LINE ( 'NONE', #40, #249 ) ;
#8 = ADVANCED_FACE ( 'NONE', ( #367 ), #307, .T. ) ;
#9 = AXIS2_PLACEMENT_3D ( 'NONE', #229, #373, #112 ) ;
#10 = CYLINDRICAL_SURFACE ( 'NONE', #33, 1.515625000000000000 ) ;
#11 = EDGE_CURVE ( 'NONE', #52, #319, #162, .T. ) ;
#12 = PRESENTATION_STYLE_ASSIGNMENT (( #212 ) ) ;
#13 = EDGE_LOOP ( 'NONE', ( #230, #105, #376, #351 ) ) ;
#14 = CARTESIAN_POINT ( 'NONE',  ( 0.0000000000000000000, 0.0000000000000000000, 3.124999999999999112 ) ) ;
#15 = CARTESIAN_POINT ( 'NONE',  ( 9.375000000000000000, 0.0000000000000000000, 0.0000000000000000000 ) ) ;
#16 = CIRCLE ( 'NONE', #109, 2.000000000000000000 ) ;
#17 = ORIENTED_EDGE ( 'NONE', *, *, #35, .F. ) ;
#18 =( LENGTH_UNIT ( ) NAMED_UNIT ( * ) SI_UNIT ( $, .METRE. ) );
#19 = CIRCLE ( 'NONE', #56, 2.999999999999999556 ) ;
#20 = DIRECTION ( 'NONE',  ( -1.000000000000000000, 0.0000000000000000000, -0.0000000000000000000 ) ) ;
#21 = ORIENTED_EDGE ( 'NONE', *, *, #78, .T. ) ;
#22 = LENGTH_MEASURE_WITH_UNIT ( LENGTH_MEASURE( 0.02539999999999999897 ), #18 );
#23 = EDGE_CURVE ( 'NONE', #221, #41, #106, .T. ) ;
#24 = DIRECTION ( 'NONE',  ( 0.0000000000000000000, 0.0000000000000000000, -1.000000000000000000 ) ) ;
#25 = EDGE_LOOP ( 'NONE', ( #138, #71, #72, #202 ) ) ;
#26 = CIRCLE ( 'NONE', #240, 1.999999999999999778 ) ;
#27 = FACE_OUTER_BOUND ( 'NONE', #13, .T. ) ;
#28 = ORIENTED_EDGE ( 'NONE', *, *, #100, .T. ) ;
#29 = ORIENTED_EDGE ( 'NONE', *, *, #313, .F. ) ;
#30 = PRODUCT_RELATED_PRODUCT_CATEGORY ( 'part', '', ( #2 ) ) ;
#31 = FACE_OUTER_BOUND ( 'NONE', #205, .T. ) ;
#32 = DIRECTION ( 'NONE',  ( -1.000000000000000000, -0.0000000000000000000, -0.0000000000000000000 ) ) ;
#33 = AXIS2_PLACEMENT_3D ( 'NONE', #298, #127, #270 ) ;
#34 = CARTESIAN_POINT ( 'NONE',  ( 0.3125000000000005551, 0.0000000000000000000, 0.0000000000000000000 ) ) ;
#35 = EDGE_CURVE ( 'NONE', #80, #192, #44, .T. ) ;
#36 = UNCERTAINTY_MEASURE_WITH_UNIT (LENGTH_MEASURE( 1.000000000000000082E-05 ), #383, 'distance_accuracy_value', 'NONE');
#37 = SURFACE_STYLE_FILL_AREA ( #4 ) ;
#38 = EDGE_CURVE ( 'NONE', #364, #252, #16, .T. ) ;
#39 = CIRCLE ( 'NONE', #139, 2.999999999999999556 ) ;
#40 = CARTESIAN_POINT ( 'NONE',  ( 0.0000000000000000000, 3.827021247335477817E-16, -3.124999999999999112 ) ) ;
#41 = VERTEX_POINT ( 'NONE', #224 ) ;
#42 = CARTESIAN_POINT ( 'NONE',  ( 0.0000000000000000000, 0.0000000000000000000, 0.0000000000000000000 ) ) ;
#43 = CIRCLE ( 'NONE', #259, 1.515625000000000000 ) ;
#44 = LINE ( 'NONE', #163, #137 ) ;
#45 = DIRECTION ( 'NONE',  ( -1.000000000000000000, -0.0000000000000000000, -0.0000000000000000000 ) ) ;
#46 = DIMENSIONAL_EXPONENTS ( 1.000000000000000000, 0.0000000000000000000, 0.0000000000000000000, 0.0000000000000000000, 0.0000000000000000000, 0.0000000000000000000, 0.0000000000000000000 ) ;
#47 = SHAPE_DEFINITION_REPRESENTATION ( #91, #301 ) ;
#48 = LINE ( 'NONE', #54, #341 ) ;
#49 = ORIENTED_EDGE ( 'NONE', *, *, #216, .F. ) ;
#50 = CARTESIAN_POINT ( 'NONE',  ( 9.375000000000000000, 0.0000000000000000000, 0.0000000000000000000 ) ) ;
#51 = CARTESIAN_POINT ( 'NONE',  ( 9.375000000000000000, 0.0000000000000000000, 0.0000000000000000000 ) ) ;
#52 = VERTEX_POINT ( 'NONE', #335 ) ;
#53 = VERTEX_POINT ( 'NONE', #340 ) ;
#54 = CARTESIAN_POINT ( 'NONE',  ( 0.0000000000000000000, 0.0000000000000000000, -1.515625000000000000 ) ) ;
#55 = PRESENTATION_STYLE_ASSIGNMENT (( #377 ) ) ;
#56 = AXIS2_PLACEMENT_3D ( 'NONE', #342, #119, #316 ) ;
#57 = CARTESIAN_POINT ( 'NONE',  ( 0.0000000000000000000, 3.827021247335478310E-16, -3.124999999999999556 ) ) ;
#58 = FACE_BOUND ( 'NONE', #380, .T. ) ;
#59 = COLOUR_RGB ( '',0.7921568627450980005, 0.8196078431372548767, 0.9333333333333333481 ) ;
#60 = DIRECTION ( 'NONE',  ( -1.000000000000000000, 0.0000000000000000000, -0.0000000000000000000 ) ) ;
#61 = VECTOR ( 'NONE', #155, 39.37007874015748143 ) ;
#62 = DIRECTION ( 'NONE',  ( -1.000000000000000000, -0.0000000000000000000, -0.0000000000000000000 ) ) ;
#63 = DIRECTION ( 'NONE',  ( 0.0000000000000000000, 0.0000000000000000000, 1.000000000000000000 ) ) ;
#64 = ADVANCED_FACE ( 'NONE', ( #195, #84 ), #283, .F. ) ;
#65 = DIRECTION ( 'NONE',  ( -1.000000000000000000, -0.0000000000000000000, -0.0000000000000000000 ) ) ;
#66 = DIRECTION ( 'NONE',  ( 1.000000000000000000, 0.0000000000000000000, 0.0000000000000000000 ) ) ;
#67 = AXIS2_PLACEMENT_3D ( 'NONE', #42, #312, #305 ) ;
#68 = UNCERTAINTY_MEASURE_WITH_UNIT (LENGTH_MEASURE( 1.000000000000000082E-05 ), #3, 'distance_accuracy_value', 'NONE');
#69 =( LENGTH_UNIT ( ) NAMED_UNIT ( * ) SI_UNIT ( $, .METRE. ) );
#70 = AXIS2_PLACEMENT_3D ( 'NONE', #51, #147, #344 ) ;
#71 = ORIENTED_EDGE ( 'NONE', *, *, #100, .F. ) ;
#72 = ORIENTED_EDGE ( 'NONE', *, *, #152, .T. ) ;
#73 = AXIS2_PLACEMENT_3D ( 'NONE', #209, #96, #294 ) ;
#74 = EDGE_LOOP ( 'NONE', ( #227, #77, #111, #131 ) ) ;
#75 = ADVANCED_FACE ( 'NONE', ( #123 ), #256, .T. ) ;
#76 = AXIS2_PLACEMENT_3D ( 'NONE', #318, #232, #167 ) ;
#77 = ORIENTED_EDGE ( 'NONE', *, *, #164, .T. ) ;
#78 = EDGE_CURVE ( 'NONE', #336, #52, #292, .T. ) ;
#79 = CARTESIAN_POINT ( 'NONE',  ( 3.875000000000000444, 2.449293598294705921E-16, -1.999999999999999778 ) ) ;
#80 = VERTEX_POINT ( 'NONE', #369 ) ;
#81 = APPLICATION_PROTOCOL_DEFINITION ( 'draft international standard', 'automotive_design', 1998, #359 ) ;
#82 = AXIS2_PLACEMENT_3D ( 'NONE', #101, #332, #354 ) ;
#83 = FACE_OUTER_BOUND ( 'NONE', #233, .T. ) ;
#84 = FACE_BOUND ( 'NONE', #291, .T. ) ;
#85 = ORIENTED_EDGE ( 'NONE', *, *, #107, .F. ) ;
#86 = PLANE ( 'NONE',  #70 ) ;
#87 = ORIENTED_EDGE ( 'NONE', *, *, #179, .T. ) ;
#88 = DIRECTION ( 'NONE',  ( 0.0000000000000000000, 0.0000000000000000000, 1.000000000000000000 ) ) ;
#89 = AXIS2_PLACEMENT_3D ( 'NONE', #150, #346, #234 ) ;
#90 = DIRECTION ( 'NONE',  ( 0.0000000000000000000, 0.0000000000000000000, 1.000000000000000000 ) ) ;
#91 = PRODUCT_DEFINITION_SHAPE ( 'NONE', 'NONE',  #353 ) ;
#92 = APPLICATION_CONTEXT ( 'automotive_design' ) ;
#93 = DIRECTION ( 'NONE',  ( -0.0000000000000000000, 0.0000000000000000000, 1.000000000000000000 ) ) ;
#94 = FACE_BOUND ( 'NONE', #379, .T. ) ;
#95 = AXIS2_PLACEMENT_3D ( 'NONE', #262, #117, #290 ) ;
#96 = DIRECTION ( 'NONE',  ( -1.000000000000000000, -0.0000000000000000000, -0.0000000000000000000 ) ) ;
#97 = AXIS2_PLACEMENT_3D ( 'NONE', #361, #219, #356 ) ;
#98 =( CONVERSION_BASED_UNIT ( 'INCH', #334 ) LENGTH_UNIT ( ) NAMED_UNIT ( #46 ) );
#99 = DIRECTION ( 'NONE',  ( 0.0000000000000000000, 0.0000000000000000000, 1.000000000000000000 ) ) ;
#100 = EDGE_CURVE ( 'NONE', #174, #221, #304, .T. ) ;
#101 = CARTESIAN_POINT ( 'NONE',  ( 0.0000000000000000000, 0.0000000000000000000, 0.0000000000000000000 ) ) ;
#102 =( NAMED_UNIT ( * ) PLANE_ANGLE_UNIT ( ) SI_UNIT ( $, .RADIAN. ) );
#103 = PLANE ( 'NONE',  #231 ) ;
#104 = ORIENTED_EDGE ( 'NONE', *, *, #179, .F. ) ;
#105 = ORIENTED_EDGE ( 'NONE', *, *, #23, .T. ) ;
#106 = LINE ( 'NONE', #220, #265 ) ;
#107 = EDGE_CURVE ( 'NONE', #80, #53, #39, .T. ) ;
#108 = DIRECTION ( 'NONE',  ( 0.0000000000000000000, 0.0000000000000000000, 1.000000000000000000 ) ) ;
#109 = AXIS2_PLACEMENT_3D ( 'NONE', #15, #279, #108 ) ;
#110 = ADVANCED_FACE ( 'NONE', ( #27 ), #172, .F. ) ;
#111 = ORIENTED_EDGE ( 'NONE', *, *, #35, .T. ) ;
#112 = DIRECTION ( 'NONE',  ( 0.0000000000000000000, 0.0000000000000000000, 1.000000000000000000 ) ) ;
#113 = ORIENTED_EDGE ( 'NONE', *, *, #200, .F. ) ;
#114 = DIRECTION ( 'NONE',  ( -1.000000000000000000, -0.0000000000000000000, -0.0000000000000000000 ) ) ;
#115 = CIRCLE ( 'NONE', #338, 2.999999999999999556 ) ;
#116 = EDGE_LOOP ( 'NONE', ( #87, #286, #191, #176 ) ) ;
#117 = DIRECTION ( 'NONE',  ( 0.0000000000000000000, 0.0000000000000000000, 1.000000000000000000 ) ) ;
#118 = CIRCLE ( 'NONE', #82, 1.515625000000000000 ) ;
#119 = DIRECTION ( 'NONE',  ( -1.000000000000000000, -0.0000000000000000000, -0.0000000000000000000 ) ) ;
#120 =( NAMED_UNIT ( * ) SI_UNIT ( $, .STERADIAN. ) SOLID_ANGLE_UNIT ( ) );
#121 = DIRECTION ( 'NONE',  ( 1.000000000000000000, 0.0000000000000000000, 0.0000000000000000000 ) ) ;
#122 = ORIENTED_EDGE ( 'NONE', *, *, #164, .F. ) ;
#123 = FACE_OUTER_BOUND ( 'NONE', #74, .T. ) ;
#124 = CARTESIAN_POINT ( 'NONE',  ( 9.375000000000000000, 0.0000000000000000000, 0.0000000000000000000 ) ) ;
#125 = DIRECTION ( 'NONE',  ( 0.0000000000000000000, 0.0000000000000000000, -1.000000000000000000 ) ) ;
#126 = CARTESIAN_POINT ( 'NONE',  ( 0.0000000000000000000, 0.0000000000000000000, 0.0000000000000000000 ) ) ;
#127 = DIRECTION ( 'NONE',  ( 1.000000000000000000, -0.0000000000000000000, -0.0000000000000000000 ) ) ;
#128 = UNCERTAINTY_MEASURE_WITH_UNIT (LENGTH_MEASURE( 1.000000000000000082E-05 ), #98, 'distance_accuracy_value', 'NONE');
#129 = VECTOR ( 'NONE', #114, 39.37007874015748143 ) ;
#130 = DIRECTION ( 'NONE',  ( 0.0000000000000000000, 0.0000000000000000000, -1.000000000000000000 ) ) ;
#131 = ORIENTED_EDGE ( 'NONE', *, *, #271, .F. ) ;
#132 = CIRCLE ( 'NONE', #276, 3.124999999999999556 ) ;
#133 = ORIENTED_EDGE ( 'NONE', *, *, #278, .T. ) ;
#134 = EDGE_CURVE ( 'NONE', #53, #343, #352, .T. ) ;
#135 = ORIENTED_EDGE ( 'NONE', *, *, #320, .F. ) ;
#136 = ORIENTED_EDGE ( 'NONE', *, *, #337, .T. ) ;
#137 = VECTOR ( 'NONE', #45, 39.37007874015748143 ) ;
#138 = ORIENTED_EDGE ( 'NONE', *, *, #23, .F. ) ;
#139 = AXIS2_PLACEMENT_3D ( 'NONE', #314, #197, #350 ) ;
#140 = SURFACE_STYLE_FILL_AREA ( #371 ) ;
#141 = CARTESIAN_POINT ( 'NONE',  ( 0.3125000000000005551, 2.999999999999999556, 0.0000000000000000000 ) ) ;
#142 = ORIENTED_EDGE ( 'NONE', *, *, #11, .T. ) ;
#143 = PRODUCT_CONTEXT ( 'NONE', #359, 'mechanical' ) ;
#144 = COLOUR_RGB ( '',0.7921568627450980005, 0.8196078431372548767, 0.9333333333333333481 ) ;
#145 = CARTESIAN_POINT ( 'NONE',  ( 0.0000000000000000000, 0.0000000000000000000, 0.0000000000000000000 ) ) ;
#146 = VERTEX_POINT ( 'NONE', #79 ) ;
#147 = DIRECTION ( 'NONE',  ( -1.000000000000000000, 0.0000000000000000000, -0.0000000000000000000 ) ) ;
#148 = ADVANCED_FACE ( 'NONE', ( #288, #83 ), #86, .F. ) ;
#149 = ORIENTED_EDGE ( 'NONE', *, *, #381, .T. ) ;
#150 = CARTESIAN_POINT ( 'NONE',  ( 0.0000000000000000000, 0.0000000000000000000, 0.0000000000000000000 ) ) ;
#151 = DIRECTION ( 'NONE',  ( -1.000000000000000000, -0.0000000000000000000, -0.0000000000000000000 ) ) ;
#152 = EDGE_CURVE ( 'NONE', #174, #339, #48, .T. ) ;
#153 = FACE_OUTER_BOUND ( 'NONE', #317, .T. ) ;
#154 = PLANE ( 'NONE',  #184 ) ;
#155 = DIRECTION ( 'NONE',  ( -1.000000000000000000, -0.0000000000000000000, -0.0000000000000000000 ) ) ;
#156 =( NAMED_UNIT ( * ) PLANE_ANGLE_UNIT ( ) SI_UNIT ( $, .RADIAN. ) );
#157 = AXIS2_PLACEMENT_3D ( 'NONE', #378, #293, #88 ) ;
#158 = FACE_OUTER_BOUND ( 'NONE', #289, .T. ) ;
#159 = ORIENTED_EDGE ( 'NONE', *, *, #78, .F. ) ;
#160 =( GEOMETRIC_REPRESENTATION_CONTEXT ( 3 ) GLOBAL_UNCERTAINTY_ASSIGNED_CONTEXT ( ( #36 ) ) GLOBAL_UNIT_ASSIGNED_CONTEXT ( ( #383, #228, #120 ) ) REPRESENTATION_CONTEXT ( 'NONE', 'WORKASPACE' ) );
#161 =( GEOMETRIC_REPRESENTATION_CONTEXT ( 3 ) GLOBAL_UNCERTAINTY_ASSIGNED_CONTEXT ( ( #128 ) ) GLOBAL_UNIT_ASSIGNED_CONTEXT ( ( #98, #102, #331 ) ) REPRESENTATION_CONTEXT ( 'NONE', 'WORKASPACE' ) );
#162 = LINE ( 'NONE', #14, #166 ) ;
#163 = CARTESIAN_POINT ( 'NONE',  ( 0.0000000000000000000, 0.0000000000000000000, 2.999999999999999556 ) ) ;
#164 = EDGE_CURVE ( 'NONE', #53, #80, #19, .T. ) ;
#165 = EDGE_LOOP ( 'NONE', ( #275, #29 ) ) ;
#166 = VECTOR ( 'NONE', #366, 39.37007874015748143 ) ;
#167 = DIRECTION ( 'NONE',  ( 0.0000000000000000000, 0.0000000000000000000, 1.000000000000000000 ) ) ;
#168 = ORIENTED_EDGE ( 'NONE', *, *, #349, .T. ) ;
#169 = CYLINDRICAL_SURFACE ( 'NONE', #239, 2.000000000000000000 ) ;
#170 = VERTEX_POINT ( 'NONE', #177 ) ;
#171 = APPLICATION_PROTOCOL_DEFINITION ( 'draft international standard', 'automotive_design', 1998, #92 ) ;
#172 = CYLINDRICAL_SURFACE ( 'NONE', #225, 1.515625000000000000 ) ;
#173 = PRESENTATION_LAYER_ASSIGNMENT (  '', '', ( #306 ) ) ;
#174 = VERTEX_POINT ( 'NONE', #264 ) ;
#175 = FILL_AREA_STYLE_COLOUR ( '', #59 ) ;
#176 = ORIENTED_EDGE ( 'NONE', *, *, #11, .F. ) ;
#177 = CARTESIAN_POINT ( 'NONE',  ( 3.875000000000000444, 0.0000000000000000000, 1.999999999999999778 ) ) ;
#178 = CIRCLE ( 'NONE', #273, 2.000000000000000000 ) ;
#179 = EDGE_CURVE ( 'NONE', #52, #336, #282, .T. ) ;
#180 = CARTESIAN_POINT ( 'NONE',  ( 3.875000000000000444, 0.0000000000000000000, 0.0000000000000000000 ) ) ;
#181 = CARTESIAN_POINT ( 'NONE',  ( 0.0000000000000000000, 0.0000000000000000000, 3.124999999999999556 ) ) ;
#182 = MECHANICAL_DESIGN_GEOMETRIC_PRESENTATION_REPRESENTATION (  '', ( #306 ), #160 ) ;
#183 = DIRECTION ( 'NONE',  ( 0.0000000000000000000, 0.0000000000000000000, -1.000000000000000000 ) ) ;
#184 = AXIS2_PLACEMENT_3D ( 'NONE', #237, #60, #93 ) ;
#185 = CARTESIAN_POINT ( 'NONE',  ( 0.0000000000000000000, 0.0000000000000000000, 2.000000000000000000 ) ) ;
#186 = CARTESIAN_POINT ( 'NONE',  ( 0.0000000000000000000, 2.449293598294706414E-16, -2.000000000000000000 ) ) ;
#187 = CYLINDRICAL_SURFACE ( 'NONE', #296, 2.999999999999999556 ) ;
#188 = EDGE_CURVE ( 'NONE', #252, #364, #178, .T. ) ;
#189 = FILL_AREA_STYLE_COLOUR ( '', #144 ) ;
#190 = CARTESIAN_POINT ( 'NONE',  ( 0.0000000000000000000, 1.856105304957707054E-16, 1.515625000000000000 ) ) ;
#191 = ORIENTED_EDGE ( 'NONE', *, *, #253, .F. ) ;
#192 = VERTEX_POINT ( 'NONE', #382 ) ;
#193 = MECHANICAL_DESIGN_GEOMETRIC_PRESENTATION_REPRESENTATION (  '', ( #213 ), #161 ) ;
#194 = ORIENTED_EDGE ( 'NONE', *, *, #200, .T. ) ;
#195 = FACE_OUTER_BOUND ( 'NONE', #365, .T. ) ;
#196 = CLOSED_SHELL ( 'NONE', ( #8, #110, #375, #269, #75, #148, #204, #308, #242, #218, #325, #64 ) ) ;
#197 = DIRECTION ( 'NONE',  ( -1.000000000000000000, -0.0000000000000000000, -0.0000000000000000000 ) ) ;
#198 = ORIENTED_EDGE ( 'NONE', *, *, #320, .T. ) ;
#199 = DIRECTION ( 'NONE',  ( 1.000000000000000000, -0.0000000000000000000, -0.0000000000000000000 ) ) ;
#200 = EDGE_CURVE ( 'NONE', #146, #170, #324, .T. ) ;
#201 = DIRECTION ( 'NONE',  ( -0.0000000000000000000, 0.0000000000000000000, 1.000000000000000000 ) ) ;
#202 = ORIENTED_EDGE ( 'NONE', *, *, #281, .T. ) ;
#203 = CARTESIAN_POINT ( 'NONE',  ( 0.0000000000000000000, 0.0000000000000000000, 0.0000000000000000000 ) ) ;
#204 = ADVANCED_FACE ( 'NONE', ( #31 ), #169, .T. ) ;
#205 = EDGE_LOOP ( 'NONE', ( #368, #315, #345, #113 ) ) ;
#206 = FACE_OUTER_BOUND ( 'NONE', #248, .T. ) ;
#207 = AXIS2_PLACEMENT_3D ( 'NONE', #141, #20, #201 ) ;
#208 = MANIFOLD_SOLID_BREP ( 'Revolve2', #196 ) ;
#209 = CARTESIAN_POINT ( 'NONE',  ( 0.0000000000000000000, 0.0000000000000000000, 0.0000000000000000000 ) ) ;
#210 = CYLINDRICAL_SURFACE ( 'NONE', #211, 2.000000000000000000 ) ;
#211 = AXIS2_PLACEMENT_3D ( 'NONE', #215, #330, #299 ) ;
#212 = SURFACE_STYLE_USAGE ( .BOTH. , #333 ) ;
#213 = STYLED_ITEM ( 'NONE', ( #12 ), #208 ) ;
#214 = DIRECTION ( 'NONE',  ( -1.000000000000000000, -0.0000000000000000000, -0.0000000000000000000 ) ) ;
#215 = CARTESIAN_POINT ( 'NONE',  ( 0.0000000000000000000, 0.0000000000000000000, 0.0000000000000000000 ) ) ;
#216 = EDGE_CURVE ( 'NONE', #364, #170, #272, .T. ) ;
#217 = CARTESIAN_POINT ( 'NONE',  ( 0.0000000000000000000, 0.0000000000000000000, 0.0000000000000000000 ) ) ;
#218 = ADVANCED_FACE ( 'NONE', ( #302 ), #10, .F. ) ;
#219 = DIRECTION ( 'NONE',  ( -1.000000000000000000, -0.0000000000000000000, -0.0000000000000000000 ) ) ;
#220 = CARTESIAN_POINT ( 'NONE',  ( 0.0000000000000000000, 1.856105304957707054E-16, 1.515625000000000000 ) ) ;
#221 = VERTEX_POINT ( 'NONE', #190 ) ;
#222 = ORIENTED_EDGE ( 'NONE', *, *, #253, .T. ) ;
#223 = DIMENSIONAL_EXPONENTS ( 1.000000000000000000, 0.0000000000000000000, 0.0000000000000000000, 0.0000000000000000000, 0.0000000000000000000, 0.0000000000000000000, 0.0000000000000000000 ) ;
#224 = CARTESIAN_POINT ( 'NONE',  ( 9.375000000000000000, 1.856105304957707054E-16, 1.515625000000000000 ) ) ;
#225 = AXIS2_PLACEMENT_3D ( 'NONE', #145, #236, #258 ) ;
#226 = CARTESIAN_POINT ( 'NONE',  ( 0.0000000000000000000, 3.673940397442058882E-16, -2.999999999999999556 ) ) ;
#227 = ORIENTED_EDGE ( 'NONE', *, *, #134, .F. ) ;
#228 =( NAMED_UNIT ( * ) PLANE_ANGLE_UNIT ( ) SI_UNIT ( $, .RADIAN. ) );
#229 = CARTESIAN_POINT ( 'NONE',  ( 0.3125000000000005551, 0.0000000000000000000, 0.0000000000000000000 ) ) ;
#230 = ORIENTED_EDGE ( 'NONE', *, *, #278, .F. ) ;
#231 = AXIS2_PLACEMENT_3D ( 'NONE', #246, #66, #130 ) ;
#232 = DIRECTION ( 'NONE',  ( -1.000000000000000000, -0.0000000000000000000, -0.0000000000000000000 ) ) ;
#233 = EDGE_LOOP ( 'NONE', ( #322, #370 ) ) ;
#234 = DIRECTION ( 'NONE',  ( 0.0000000000000000000, 0.0000000000000000000, 1.000000000000000000 ) ) ;
#235 = ORIENTED_EDGE ( 'NONE', *, *, #245, .F. ) ;
#236 = DIRECTION ( 'NONE',  ( 1.000000000000000000, -0.0000000000000000000, -0.0000000000000000000 ) ) ;
#237 = CARTESIAN_POINT ( 'NONE',  ( 3.875000000000000444, 1.999999999999999778, 0.0000000000000000000 ) ) ;
#238 = DIRECTION ( 'NONE',  ( -1.000000000000000000, -0.0000000000000000000, -0.0000000000000000000 ) ) ;
#239 = AXIS2_PLACEMENT_3D ( 'NONE', #285, #214, #363 ) ;
#240 = AXIS2_PLACEMENT_3D ( 'NONE', #180, #238, #90 ) ;
#241 = CARTESIAN_POINT ( 'NONE',  ( 9.375000000000000000, 2.449293598294706414E-16, -2.000000000000000000 ) ) ;
#242 = ADVANCED_FACE ( 'NONE', ( #94, #303 ), #103, .F. ) ;
#243 = CARTESIAN_POINT ( 'NONE',  ( 9.375000000000000000, 0.0000000000000000000, -1.515625000000000000 ) ) ;
#244 = DIRECTION ( 'NONE',  ( -1.000000000000000000, -0.0000000000000000000, -0.0000000000000000000 ) ) ;
#245 = EDGE_CURVE ( 'NONE', #336, #284, #7, .T. ) ;
#246 = CARTESIAN_POINT ( 'NONE',  ( 0.0000000000000000000, 2.999999999999999112, 0.0000000000000000000 ) ) ;
#247 = CARTESIAN_POINT ( 'NONE',  ( 0.0000000000000000000, 0.0000000000000000000, 0.0000000000000000000 ) ) ;
#248 = EDGE_LOOP ( 'NONE', ( #235, #21, #142, #261 ) ) ;
#249 = VECTOR ( 'NONE', #62, 39.37007874015748143 ) ;
#250 = ORIENTED_EDGE ( 'NONE', *, *, #271, .T. ) ;
#251 = EDGE_LOOP ( 'NONE', ( #85, #122 ) ) ;
#252 = VERTEX_POINT ( 'NONE', #241 ) ;
#253 = EDGE_CURVE ( 'NONE', #319, #284, #132, .T. ) ;
#254 = ORIENTED_EDGE ( 'NONE', *, *, #134, .T. ) ;
#255 = AXIS2_PLACEMENT_3D ( 'NONE', #203, #121, #24 ) ;
#256 = CYLINDRICAL_SURFACE ( 'NONE', #89, 2.999999999999999556 ) ;
#257 = ORIENTED_EDGE ( 'NONE', *, *, #381, .F. ) ;
#258 = DIRECTION ( 'NONE',  ( 0.0000000000000000000, 0.0000000000000000000, -1.000000000000000000 ) ) ;
#259 = AXIS2_PLACEMENT_3D ( 'NONE', #267, #326, #125 ) ;
#260 = DIRECTION ( 'NONE',  ( 0.0000000000000000000, 0.0000000000000000000, 1.000000000000000000 ) ) ;
#261 = ORIENTED_EDGE ( 'NONE', *, *, #349, .F. ) ;
#262 = CARTESIAN_POINT ( 'NONE',  ( 0.0000000000000000000, 0.0000000000000000000, 0.0000000000000000000 ) ) ;
#263 = ORIENTED_EDGE ( 'NONE', *, *, #107, .T. ) ;
#264 = CARTESIAN_POINT ( 'NONE',  ( 0.0000000000000000000, 0.0000000000000000000, -1.515625000000000000 ) ) ;
#265 = VECTOR ( 'NONE', #310, 39.37007874015748143 ) ;
#266 = CARTESIAN_POINT ( 'NONE',  ( 9.375000000000000000, 0.0000000000000000000, 2.000000000000000000 ) ) ;
#267 = CARTESIAN_POINT ( 'NONE',  ( 9.375000000000000000, 0.0000000000000000000, 0.0000000000000000000 ) ) ;
#268 = LENGTH_MEASURE_WITH_UNIT ( LENGTH_MEASURE( 0.02539999999999999897 ), #360 );
#269 = ADVANCED_FACE ( 'NONE', ( #158 ), #187, .T. ) ;
#270 = DIRECTION ( 'NONE',  ( 0.0000000000000000000, 0.0000000000000000000, -1.000000000000000000 ) ) ;
#271 = EDGE_CURVE ( 'NONE', #343, #192, #309, .T. ) ;
#272 = LINE ( 'NONE', #185, #61 ) ;
#273 = AXIS2_PLACEMENT_3D ( 'NONE', #50, #321, #260 ) ;
#274 = DIRECTION ( 'NONE',  ( 0.0000000000000000000, 0.0000000000000000000, 1.000000000000000000 ) ) ;
#275 = ORIENTED_EDGE ( 'NONE', *, *, #281, .F. ) ;
#276 = AXIS2_PLACEMENT_3D ( 'NONE', #247, #65, #300 ) ;
#277 = EDGE_LOOP ( 'NONE', ( #222, #168 ) ) ;
#278 = EDGE_CURVE ( 'NONE', #221, #174, #118, .T. ) ;
#279 = DIRECTION ( 'NONE',  ( -1.000000000000000000, -0.0000000000000000000, -0.0000000000000000000 ) ) ;
#280 = ORIENTED_EDGE ( 'NONE', *, *, #38, .T. ) ;
#281 = EDGE_CURVE ( 'NONE', #339, #41, #43, .T. ) ;
#282 = CIRCLE ( 'NONE', #76, 3.124999999999999112 ) ;
#283 = PLANE ( 'NONE',  #207 ) ;
#284 = VERTEX_POINT ( 'NONE', #57 ) ;
#285 = CARTESIAN_POINT ( 'NONE',  ( 0.0000000000000000000, 0.0000000000000000000, 0.0000000000000000000 ) ) ;
#286 = ORIENTED_EDGE ( 'NONE', *, *, #245, .T. ) ;
#287 = AXIS2_PLACEMENT_3D ( 'NONE', #126, #151, #63 ) ;
#288 = FACE_BOUND ( 'NONE', #165, .T. ) ;
#289 = EDGE_LOOP ( 'NONE', ( #263, #254, #257, #17 ) ) ;
#290 = DIRECTION ( 'NONE',  ( 1.000000000000000000, 0.0000000000000000000, 0.0000000000000000000 ) ) ;
#291 = EDGE_LOOP ( 'NONE', ( #149, #250 ) ) ;
#292 = CIRCLE ( 'NONE', #9, 3.124999999999999112 ) ;
#293 = DIRECTION ( 'NONE',  ( -1.000000000000000000, -0.0000000000000000000, -0.0000000000000000000 ) ) ;
#294 = DIRECTION ( 'NONE',  ( 0.0000000000000000000, 0.0000000000000000000, 1.000000000000000000 ) ) ;
#295 = CARTESIAN_POINT ( 'NONE',  ( 0.3125000000000005551, 3.827021247335477817E-16, -3.124999999999999112 ) ) ;
#296 = AXIS2_PLACEMENT_3D ( 'NONE', #217, #244, #274 ) ;
#297 = CYLINDRICAL_SURFACE ( 'NONE', #73, 3.124999999999999112 ) ;
#298 = CARTESIAN_POINT ( 'NONE',  ( 0.0000000000000000000, 0.0000000000000000000, 0.0000000000000000000 ) ) ;
#299 = DIRECTION ( 'NONE',  ( 0.0000000000000000000, 0.0000000000000000000, 1.000000000000000000 ) ) ;
#300 = DIRECTION ( 'NONE',  ( 0.0000000000000000000, 0.0000000000000000000, 1.000000000000000000 ) ) ;
#301 = ADVANCED_BREP_SHAPE_REPRESENTATION ( '3AC-6', ( #208, #95 ), #328 ) ;
#302 = FACE_OUTER_BOUND ( 'NONE', #25, .T. ) ;
#303 = FACE_OUTER_BOUND ( 'NONE', #277, .T. ) ;
#304 = CIRCLE ( 'NONE', #255, 1.515625000000000000 ) ;
#305 = DIRECTION ( 'NONE',  ( 0.0000000000000000000, 0.0000000000000000000, 1.000000000000000000 ) ) ;
#306 = STYLED_ITEM ( 'NONE', ( #55 ), #301 ) ;
#307 = CYLINDRICAL_SURFACE ( 'NONE', #67, 3.124999999999999112 ) ;
#308 = ADVANCED_FACE ( 'NONE', ( #355, #58 ), #154, .F. ) ;
#309 = CIRCLE ( 'NONE', #97, 2.999999999999999556 ) ;
#310 = DIRECTION ( 'NONE',  ( 1.000000000000000000, -0.0000000000000000000, -0.0000000000000000000 ) ) ;
#311 = DIMENSIONAL_EXPONENTS ( 1.000000000000000000, 0.0000000000000000000, 0.0000000000000000000, 0.0000000000000000000, 0.0000000000000000000, 0.0000000000000000000, 0.0000000000000000000 ) ;
#312 = DIRECTION ( 'NONE',  ( -1.000000000000000000, -0.0000000000000000000, -0.0000000000000000000 ) ) ;
#313 = EDGE_CURVE ( 'NONE', #41, #339, #329, .T. ) ;
#314 = CARTESIAN_POINT ( 'NONE',  ( 3.875000000000000444, 0.0000000000000000000, 0.0000000000000000000 ) ) ;
#315 = ORIENTED_EDGE ( 'NONE', *, *, #188, .T. ) ;
#316 = DIRECTION ( 'NONE',  ( 0.0000000000000000000, 0.0000000000000000000, 1.000000000000000000 ) ) ;
#317 = EDGE_LOOP ( 'NONE', ( #280, #136, #135, #49 ) ) ;
#318 = CARTESIAN_POINT ( 'NONE',  ( 0.3125000000000005551, 0.0000000000000000000, 0.0000000000000000000 ) ) ;
#319 = VERTEX_POINT ( 'NONE', #181 ) ;
#320 = EDGE_CURVE ( 'NONE', #170, #146, #26, .T. ) ;
#321 = DIRECTION ( 'NONE',  ( -1.000000000000000000, -0.0000000000000000000, -0.0000000000000000000 ) ) ;
#322 = ORIENTED_EDGE ( 'NONE', *, *, #38, .F. ) ;
#323 = LINE ( 'NONE', #186, #372 ) ;
#324 = CIRCLE ( 'NONE', #157, 1.999999999999999778 ) ;
#325 = ADVANCED_FACE ( 'NONE', ( #206 ), #297, .T. ) ;
#326 = DIRECTION ( 'NONE',  ( 1.000000000000000000, 0.0000000000000000000, 0.0000000000000000000 ) ) ;
#327 = DIRECTION ( 'NONE',  ( -1.000000000000000000, -0.0000000000000000000, -0.0000000000000000000 ) ) ;
#328 =( GEOMETRIC_REPRESENTATION_CONTEXT ( 3 ) GLOBAL_UNCERTAINTY_ASSIGNED_CONTEXT ( ( #68 ) ) GLOBAL_UNIT_ASSIGNED_CONTEXT ( ( #3, #156, #5 ) ) REPRESENTATION_CONTEXT ( 'NONE', 'WORKASPACE' ) );
#329 = CIRCLE ( 'NONE', #374, 1.515625000000000000 ) ;
#330 = DIRECTION ( 'NONE',  ( -1.000000000000000000, -0.0000000000000000000, -0.0000000000000000000 ) ) ;
#331 =( NAMED_UNIT ( * ) SI_UNIT ( $, .STERADIAN. ) SOLID_ANGLE_UNIT ( ) );
#332 = DIRECTION ( 'NONE',  ( 1.000000000000000000, 0.0000000000000000000, 0.0000000000000000000 ) ) ;
#333 = SURFACE_SIDE_STYLE ('',( #37 ) ) ;
#334 = LENGTH_MEASURE_WITH_UNIT ( LENGTH_MEASURE( 0.02539999999999999897 ), #69 );
#335 = CARTESIAN_POINT ( 'NONE',  ( 0.3125000000000005551, 0.0000000000000000000, 3.124999999999999112 ) ) ;
#336 = VERTEX_POINT ( 'NONE', #295 ) ;
#337 = EDGE_CURVE ( 'NONE', #252, #146, #323, .T. ) ;
#338 = AXIS2_PLACEMENT_3D ( 'NONE', #34, #327, #99 ) ;
#339 = VERTEX_POINT ( 'NONE', #243 ) ;
#340 = CARTESIAN_POINT ( 'NONE',  ( 3.875000000000000444, 3.673940397442058882E-16, -2.999999999999999556 ) ) ;
#341 = VECTOR ( 'NONE', #199, 39.37007874015748143 ) ;
#342 = CARTESIAN_POINT ( 'NONE',  ( 3.875000000000000444, 0.0000000000000000000, 0.0000000000000000000 ) ) ;
#343 = VERTEX_POINT ( 'NONE', #357 ) ;
#344 = DIRECTION ( 'NONE',  ( -0.0000000000000000000, 0.0000000000000000000, 1.000000000000000000 ) ) ;
#345 = ORIENTED_EDGE ( 'NONE', *, *, #216, .T. ) ;
#346 = DIRECTION ( 'NONE',  ( -1.000000000000000000, -0.0000000000000000000, -0.0000000000000000000 ) ) ;
#347 = PRODUCT_DEFINITION_FORMATION_WITH_SPECIFIED_SOURCE ( 'ANY', '', #2, .NOT_KNOWN. ) ;
#348 = SURFACE_SIDE_STYLE ('',( #140 ) ) ;
#349 = EDGE_CURVE ( 'NONE', #284, #319, #6, .T. ) ;
#350 = DIRECTION ( 'NONE',  ( 0.0000000000000000000, 0.0000000000000000000, 1.000000000000000000 ) ) ;
#351 = ORIENTED_EDGE ( 'NONE', *, *, #152, .F. ) ;
#352 = LINE ( 'NONE', #226, #129 ) ;
#353 = PRODUCT_DEFINITION ( 'UNKNOWN', '', #347, #362 ) ;
#354 = DIRECTION ( 'NONE',  ( 0.0000000000000000000, 0.0000000000000000000, -1.000000000000000000 ) ) ;
#355 = FACE_OUTER_BOUND ( 'NONE', #251, .T. ) ;
#356 = DIRECTION ( 'NONE',  ( 0.0000000000000000000, 0.0000000000000000000, 1.000000000000000000 ) ) ;
#357 = CARTESIAN_POINT ( 'NONE',  ( 0.3125000000000005551, 3.673940397442058882E-16, -2.999999999999999556 ) ) ;
#358 = PRESENTATION_LAYER_ASSIGNMENT (  '', '', ( #213 ) ) ;
#359 = APPLICATION_CONTEXT ( 'automotive_design' ) ;
#360 =( LENGTH_UNIT ( ) NAMED_UNIT ( * ) SI_UNIT ( $, .METRE. ) );
#361 = CARTESIAN_POINT ( 'NONE',  ( 0.3125000000000005551, 0.0000000000000000000, 0.0000000000000000000 ) ) ;
#362 = PRODUCT_DEFINITION_CONTEXT ( 'detailed design', #92, 'design' ) ;
#363 = DIRECTION ( 'NONE',  ( 0.0000000000000000000, 0.0000000000000000000, 1.000000000000000000 ) ) ;
#364 = VERTEX_POINT ( 'NONE', #266 ) ;
#365 = EDGE_LOOP ( 'NONE', ( #104, #159 ) ) ;
#366 = DIRECTION ( 'NONE',  ( -1.000000000000000000, -0.0000000000000000000, -0.0000000000000000000 ) ) ;
#367 = FACE_OUTER_BOUND ( 'NONE', #116, .T. ) ;
#368 = ORIENTED_EDGE ( 'NONE', *, *, #337, .F. ) ;
#369 = CARTESIAN_POINT ( 'NONE',  ( 3.875000000000000444, 0.0000000000000000000, 2.999999999999999556 ) ) ;
#370 = ORIENTED_EDGE ( 'NONE', *, *, #188, .F. ) ;
#371 = FILL_AREA_STYLE ('',( #175 ) ) ;
#372 = VECTOR ( 'NONE', #32, 39.37007874015748143 ) ;
#373 = DIRECTION ( 'NONE',  ( -1.000000000000000000, -0.0000000000000000000, -0.0000000000000000000 ) ) ;
#374 = AXIS2_PLACEMENT_3D ( 'NONE', #124, #1, #183 ) ;
#375 = ADVANCED_FACE ( 'NONE', ( #153 ), #210, .T. ) ;
#376 = ORIENTED_EDGE ( 'NONE', *, *, #313, .T. ) ;
#377 = SURFACE_STYLE_USAGE ( .BOTH. , #348 ) ;
#378 = CARTESIAN_POINT ( 'NONE',  ( 3.875000000000000444, 0.0000000000000000000, 0.0000000000000000000 ) ) ;
#379 = EDGE_LOOP ( 'NONE', ( #28, #133 ) ) ;
#380 = EDGE_LOOP ( 'NONE', ( #198, #194 ) ) ;
#381 = EDGE_CURVE ( 'NONE', #192, #343, #115, .T. ) ;
#382 = CARTESIAN_POINT ( 'NONE',  ( 0.3125000000000005551, 0.0000000000000000000, 2.999999999999999556 ) ) ;
#383 =( CONVERSION_BASED_UNIT ( 'INCH', #22 ) LENGTH_UNIT ( ) NAMED_UNIT ( #223 ) );
ENDSEC;
END-ISO-10303-21;
