ISO-10303-21;
HEADER;
FILE_DESCRIPTION (( 'STEP AP214' ),
    '1' );
FILE_NAME ('3AC-12.STEP',
    '2020-10-26T23:45:04',
    ( '' ),
    ( '' ),
    'SwSTEP 2.0',
    'SolidWorks 2019',
    '' );
FILE_SCHEMA (( 'AUTOMOTIVE_DESIGN' ));
ENDSEC;

DATA;
#1 = ORIENTED_EDGE ( 'NONE', *, *, #112, .T. ) ;
#2 = VECTOR ( 'NONE', #79, 39.37007874015748143 ) ;
#3 =( GEOMETRIC_REPRESENTATION_CONTEXT ( 3 ) GLOBAL_UNCERTAINTY_ASSIGNED_CONTEXT ( ( #84 ) ) GLOBAL_UNIT_ASSIGNED_CONTEXT ( ( #305, #51, #335 ) ) REPRESENTATION_CONTEXT ( 'NONE', 'WORKASPACE' ) );
#4 = ORIENTED_EDGE ( 'NONE', *, *, #215, .F. ) ;
#5 = LINE ( 'NONE', #9, #308 ) ;
#6 = APPLICATION_CONTEXT ( 'automotive_design' ) ;
#7 = EDGE_LOOP ( 'NONE', ( #309, #228 ) ) ;
#8 = EDGE_LOOP ( 'NONE', ( #197, #147 ) ) ;
#9 = CARTESIAN_POINT ( 'NONE',  ( 0.0000000000000000000, 0.0000000000000000000, 2.000000000000000000 ) ) ;
#10 = EDGE_CURVE ( 'NONE', #278, #289, #209, .T. ) ;
#11 = DIRECTION ( 'NONE',  ( -1.000000000000000000, 0.0000000000000000000, -0.0000000000000000000 ) ) ;
#12 = CARTESIAN_POINT ( 'NONE',  ( 9.375000000000000000, 2.449293598294706414E-16, -2.000000000000000000 ) ) ;
#13 = CARTESIAN_POINT ( 'NONE',  ( 0.0000000000000000000, 0.0000000000000000000, 0.0000000000000000000 ) ) ;
#14 = CARTESIAN_POINT ( 'NONE',  ( 9.375000000000000000, 0.0000000000000000000, -1.515625000000000000 ) ) ;
#15 = PRESENTATION_STYLE_ASSIGNMENT (( #104 ) ) ;
#16 =( NAMED_UNIT ( * ) SI_UNIT ( $, .STERADIAN. ) SOLID_ANGLE_UNIT ( ) );
#17 =( LENGTH_UNIT ( ) NAMED_UNIT ( * ) SI_UNIT ( $, .METRE. ) );
#18 = AXIS2_PLACEMENT_3D ( 'NONE', #377, #114, #117 ) ;
#19 = AXIS2_PLACEMENT_3D ( 'NONE', #227, #346, #318 ) ;
#20 = ADVANCED_FACE ( 'NONE', ( #354 ), #164, .T. ) ;
#21 = ORIENTED_EDGE ( 'NONE', *, *, #144, .F. ) ;
#22 = DIRECTION ( 'NONE',  ( -1.000000000000000000, -0.0000000000000000000, -0.0000000000000000000 ) ) ;
#23 = CARTESIAN_POINT ( 'NONE',  ( 0.0000000000000000000, 0.0000000000000000000, 0.0000000000000000000 ) ) ;
#24 = ORIENTED_EDGE ( 'NONE', *, *, #349, .T. ) ;
#25 = FACE_OUTER_BOUND ( 'NONE', #316, .T. ) ;
#26 = DIRECTION ( 'NONE',  ( 1.000000000000000000, 0.0000000000000000000, 0.0000000000000000000 ) ) ;
#27 = FACE_BOUND ( 'NONE', #115, .T. ) ;
#28 = AXIS2_PLACEMENT_3D ( 'NONE', #192, #298, #41 ) ;
#29 = VERTEX_POINT ( 'NONE', #67 ) ;
#30 = ORIENTED_EDGE ( 'NONE', *, *, #319, .T. ) ;
#31 = EDGE_LOOP ( 'NONE', ( #95, #374, #30, #180 ) ) ;
#32 = EDGE_CURVE ( 'NONE', #29, #211, #317, .T. ) ;
#33 = VERTEX_POINT ( 'NONE', #357 ) ;
#34 = STYLED_ITEM ( 'NONE', ( #15 ), #360 ) ;
#35 =( CONVERSION_BASED_UNIT ( 'INCH', #267 ) LENGTH_UNIT ( ) NAMED_UNIT ( #76 ) );
#36 = ORIENTED_EDGE ( 'NONE', *, *, #32, .F. ) ;
#37 = FACE_OUTER_BOUND ( 'NONE', #326, .T. ) ;
#38 = CARTESIAN_POINT ( 'NONE',  ( 9.375000000000000000, 0.0000000000000000000, 0.0000000000000000000 ) ) ;
#39 = DIRECTION ( 'NONE',  ( 0.0000000000000000000, 0.0000000000000000000, 1.000000000000000000 ) ) ;
#40 = EDGE_CURVE ( 'NONE', #293, #66, #379, .T. ) ;
#41 = DIRECTION ( 'NONE',  ( 0.0000000000000000000, 0.0000000000000000000, -1.000000000000000000 ) ) ;
#42 = DIRECTION ( 'NONE',  ( 0.0000000000000000000, 0.0000000000000000000, -1.000000000000000000 ) ) ;
#43 = CIRCLE ( 'NONE', #97, 6.000000000000000888 ) ;
#44 = CIRCLE ( 'NONE', #303, 1.999999999999999778 ) ;
#45 = ADVANCED_FACE ( 'NONE', ( #37 ), #268, .F. ) ;
#46 =( CONVERSION_BASED_UNIT ( 'INCH', #113 ) LENGTH_UNIT ( ) NAMED_UNIT ( #340 ) );
#47 = ADVANCED_FACE ( 'NONE', ( #269, #72 ), #162, .F. ) ;
#48 = LENGTH_MEASURE_WITH_UNIT ( LENGTH_MEASURE( 0.02539999999999999897 ), #17 );
#49 = PRODUCT_DEFINITION_CONTEXT ( 'detailed design', #6, 'design' ) ;
#50 = SURFACE_SIDE_STYLE ('',( #341 ) ) ;
#51 =( NAMED_UNIT ( * ) PLANE_ANGLE_UNIT ( ) SI_UNIT ( $, .RADIAN. ) );
#52 = EDGE_CURVE ( 'NONE', #66, #293, #219, .T. ) ;
#53 = CARTESIAN_POINT ( 'NONE',  ( 0.0000000000000000000, 0.0000000000000000000, 6.125000000000000888 ) ) ;
#54 = AXIS2_PLACEMENT_3D ( 'NONE', #306, #149, #253 ) ;
#55 = CIRCLE ( 'NONE', #170, 2.000000000000000000 ) ;
#56 = EDGE_LOOP ( 'NONE', ( #60, #183 ) ) ;
#57 = DIRECTION ( 'NONE',  ( 0.0000000000000000000, 0.0000000000000000000, 1.000000000000000000 ) ) ;
#58 = VERTEX_POINT ( 'NONE', #12 ) ;
#59 = CARTESIAN_POINT ( 'NONE',  ( 0.0000000000000000000, 6.000000000000000888, 0.0000000000000000000 ) ) ;
#60 = ORIENTED_EDGE ( 'NONE', *, *, #32, .T. ) ;
#61 = LINE ( 'NONE', #258, #272 ) ;
#62 = ORIENTED_EDGE ( 'NONE', *, *, #322, .T. ) ;
#63 = CARTESIAN_POINT ( 'NONE',  ( 9.375000000000000000, 0.0000000000000000000, 0.0000000000000000000 ) ) ;
#64 = ORIENTED_EDGE ( 'NONE', *, *, #179, .F. ) ;
#65 = DIRECTION ( 'NONE',  ( -1.000000000000000000, -0.0000000000000000000, -0.0000000000000000000 ) ) ;
#66 = VERTEX_POINT ( 'NONE', #241 ) ;
#67 = CARTESIAN_POINT ( 'NONE',  ( 0.0000000000000000000, 0.0000000000000000000, -1.515625000000000000 ) ) ;
#68 = CARTESIAN_POINT ( 'NONE',  ( 3.875000000000000444, 0.0000000000000000000, 0.0000000000000000000 ) ) ;
#69 = ORIENTED_EDGE ( 'NONE', *, *, #319, .F. ) ;
#70 = CIRCLE ( 'NONE', #249, 1.515625000000000000 ) ;
#71 = MECHANICAL_DESIGN_GEOMETRIC_PRESENTATION_REPRESENTATION (  '', ( #143 ), #3 ) ;
#72 = FACE_BOUND ( 'NONE', #232, .T. ) ;
#73 =( NAMED_UNIT ( * ) PLANE_ANGLE_UNIT ( ) SI_UNIT ( $, .RADIAN. ) );
#74 = DIRECTION ( 'NONE',  ( -0.0000000000000000000, 0.0000000000000000000, 1.000000000000000000 ) ) ;
#75 = DIRECTION ( 'NONE',  ( -1.000000000000000000, -0.0000000000000000000, -0.0000000000000000000 ) ) ;
#76 = DIMENSIONAL_EXPONENTS ( 1.000000000000000000, 0.0000000000000000000, 0.0000000000000000000, 0.0000000000000000000, 0.0000000000000000000, 0.0000000000000000000, 0.0000000000000000000 ) ;
#77 = CYLINDRICAL_SURFACE ( 'NONE', #28, 1.515625000000000000 ) ;
#78 = PRODUCT ( '3AC-12', '3AC-12', '', ( #145 ) ) ;
#79 = DIRECTION ( 'NONE',  ( -1.000000000000000000, -0.0000000000000000000, -0.0000000000000000000 ) ) ;
#80 = AXIS2_PLACEMENT_3D ( 'NONE', #266, #11, #74 ) ;
#81 = COLOUR_RGB ( '',0.7921568627450980005, 0.8196078431372548767, 0.9333333333333333481 ) ;
#82 = PRODUCT_DEFINITION_SHAPE ( 'NONE', 'NONE',  #250 ) ;
#83 = ADVANCED_FACE ( 'NONE', ( #332 ), #77, .F. ) ;
#84 = UNCERTAINTY_MEASURE_WITH_UNIT (LENGTH_MEASURE( 1.000000000000000082E-05 ), #305, 'distance_accuracy_value', 'NONE');
#85 = CLOSED_SHELL ( 'NONE', ( #168, #45, #304, #163, #288, #281, #363, #222, #274, #83, #20, #47 ) ) ;
#86 = CIRCLE ( 'NONE', #194, 2.000000000000000000 ) ;
#87 = DIRECTION ( 'NONE',  ( -1.000000000000000000, -0.0000000000000000000, -0.0000000000000000000 ) ) ;
#88 = ORIENTED_EDGE ( 'NONE', *, *, #40, .T. ) ;
#89 = DIRECTION ( 'NONE',  ( -1.000000000000000000, -0.0000000000000000000, -0.0000000000000000000 ) ) ;
#90 = CIRCLE ( 'NONE', #142, 6.000000000000000888 ) ;
#91 = VERTEX_POINT ( 'NONE', #167 ) ;
#92 = CYLINDRICAL_SURFACE ( 'NONE', #300, 6.000000000000000888 ) ;
#93 = ORIENTED_EDGE ( 'NONE', *, *, #375, .T. ) ;
#94 = DIRECTION ( 'NONE',  ( -1.000000000000000000, 0.0000000000000000000, -0.0000000000000000000 ) ) ;
#95 = ORIENTED_EDGE ( 'NONE', *, *, #112, .F. ) ;
#96 = DIRECTION ( 'NONE',  ( -0.0000000000000000000, 0.0000000000000000000, 1.000000000000000000 ) ) ;
#97 = AXIS2_PLACEMENT_3D ( 'NONE', #334, #22, #175 ) ;
#98 = ORIENTED_EDGE ( 'NONE', *, *, #358, .T. ) ;
#99 = DIRECTION ( 'NONE',  ( -1.000000000000000000, -0.0000000000000000000, -0.0000000000000000000 ) ) ;
#100 = ORIENTED_EDGE ( 'NONE', *, *, #246, .T. ) ;
#101 = EDGE_LOOP ( 'NONE', ( #4, #286, #98, #263 ) ) ;
#102 = EDGE_LOOP ( 'NONE', ( #62, #320, #21, #343 ) ) ;
#103 = CARTESIAN_POINT ( 'NONE',  ( 0.3125000000000016653, 0.0000000000000000000, 0.0000000000000000000 ) ) ;
#104 = SURFACE_STYLE_USAGE ( .BOTH. , #138 ) ;
#105 = VECTOR ( 'NONE', #355, 39.37007874015748143 ) ;
#106 = CARTESIAN_POINT ( 'NONE',  ( 0.0000000000000000000, 0.0000000000000000000, 0.0000000000000000000 ) ) ;
#107 = VERTEX_POINT ( 'NONE', #14 ) ;
#108 = CARTESIAN_POINT ( 'NONE',  ( 0.0000000000000000000, 0.0000000000000000000, 6.125000000000000888 ) ) ;
#109 = CARTESIAN_POINT ( 'NONE',  ( 0.0000000000000000000, 2.449293598294706414E-16, -2.000000000000000000 ) ) ;
#110 = AXIS2_PLACEMENT_3D ( 'NONE', #59, #152, #383 ) ;
#111 = UNCERTAINTY_MEASURE_WITH_UNIT (LENGTH_MEASURE( 1.000000000000000082E-05 ), #35, 'distance_accuracy_value', 'NONE');
#112 = EDGE_CURVE ( 'NONE', #58, #91, #139, .T. ) ;
#113 = LENGTH_MEASURE_WITH_UNIT ( LENGTH_MEASURE( 0.02539999999999999897 ), #207 );
#114 = DIRECTION ( 'NONE',  ( -1.000000000000000000, -0.0000000000000000000, -0.0000000000000000000 ) ) ;
#115 = EDGE_LOOP ( 'NONE', ( #153, #93 ) ) ;
#116 = DIRECTION ( 'NONE',  ( -1.000000000000000000, -0.0000000000000000000, -0.0000000000000000000 ) ) ;
#117 = DIRECTION ( 'NONE',  ( 0.0000000000000000000, 0.0000000000000000000, 1.000000000000000000 ) ) ;
#118 = CARTESIAN_POINT ( 'NONE',  ( 0.3125000000000016653, 0.0000000000000000000, 0.0000000000000000000 ) ) ;
#119 = CARTESIAN_POINT ( 'NONE',  ( 3.875000000000001776, 0.0000000000000000000, 6.000000000000000888 ) ) ;
#120 = EDGE_LOOP ( 'NONE', ( #199, #24 ) ) ;
#121 = FACE_BOUND ( 'NONE', #56, .T. ) ;
#122 = ORIENTED_EDGE ( 'NONE', *, *, #358, .F. ) ;
#123 = PLANE ( 'NONE',  #186 ) ;
#124 = AXIS2_PLACEMENT_3D ( 'NONE', #296, #137, #39 ) ;
#125 = ORIENTED_EDGE ( 'NONE', *, *, #294, .T. ) ;
#126 = CARTESIAN_POINT ( 'NONE',  ( 0.0000000000000000000, 0.0000000000000000000, 6.000000000000000888 ) ) ;
#127 = CARTESIAN_POINT ( 'NONE',  ( 0.0000000000000000000, 0.0000000000000000000, 0.0000000000000000000 ) ) ;
#128 = EDGE_LOOP ( 'NONE', ( #350, #264, #204, #260 ) ) ;
#129 = CARTESIAN_POINT ( 'NONE',  ( 0.0000000000000000000, 0.0000000000000000000, 0.0000000000000000000 ) ) ;
#130 = DIRECTION ( 'NONE',  ( 0.0000000000000000000, 0.0000000000000000000, 1.000000000000000000 ) ) ;
#131 = DIRECTION ( 'NONE',  ( 0.0000000000000000000, 0.0000000000000000000, 1.000000000000000000 ) ) ;
#132 = DIRECTION ( 'NONE',  ( -1.000000000000000000, -0.0000000000000000000, -0.0000000000000000000 ) ) ;
#133 = PRODUCT_RELATED_PRODUCT_CATEGORY ( 'part', '', ( #78 ) ) ;
#134 = AXIS2_PLACEMENT_3D ( 'NONE', #129, #324, #131 ) ;
#135 = VECTOR ( 'NONE', #376, 39.37007874015748143 ) ;
#136 = CIRCLE ( 'NONE', #337, 1.515625000000000000 ) ;
#137 = DIRECTION ( 'NONE',  ( -1.000000000000000000, -0.0000000000000000000, -0.0000000000000000000 ) ) ;
#138 = SURFACE_SIDE_STYLE ('',( #243 ) ) ;
#139 = LINE ( 'NONE', #109, #2 ) ;
#140 = DIRECTION ( 'NONE',  ( -1.000000000000000000, -0.0000000000000000000, -0.0000000000000000000 ) ) ;
#141 = EDGE_CURVE ( 'NONE', #211, #353, #242, .T. ) ;
#142 = AXIS2_PLACEMENT_3D ( 'NONE', #193, #237, #233 ) ;
#143 = STYLED_ITEM ( 'NONE', ( #365 ), #161 ) ;
#144 = EDGE_CURVE ( 'NONE', #289, #351, #43, .T. ) ;
#145 = PRODUCT_CONTEXT ( 'NONE', #366, 'mechanical' ) ;
#146 = CIRCLE ( 'NONE', #339, 6.000000000000000888 ) ;
#147 = ORIENTED_EDGE ( 'NONE', *, *, #240, .F. ) ;
#148 = CARTESIAN_POINT ( 'NONE',  ( 9.375000000000000000, 0.0000000000000000000, 0.0000000000000000000 ) ) ;
#149 = DIRECTION ( 'NONE',  ( -1.000000000000000000, -0.0000000000000000000, -0.0000000000000000000 ) ) ;
#150 = PLANE ( 'NONE',  #110 ) ;
#151 = DIRECTION ( 'NONE',  ( -1.000000000000000000, -0.0000000000000000000, -0.0000000000000000000 ) ) ;
#152 = DIRECTION ( 'NONE',  ( 1.000000000000000000, 0.0000000000000000000, 0.0000000000000000000 ) ) ;
#153 = ORIENTED_EDGE ( 'NONE', *, *, #173, .T. ) ;
#154 = CARTESIAN_POINT ( 'NONE',  ( 0.0000000000000000000, 1.856105304957707054E-16, 1.515625000000000000 ) ) ;
#155 = EDGE_CURVE ( 'NONE', #211, #29, #70, .T. ) ;
#156 = VERTEX_POINT ( 'NONE', #53 ) ;
#157 = AXIS2_PLACEMENT_3D ( 'NONE', #106, #132, #333 ) ;
#158 = PRODUCT_DEFINITION_FORMATION_WITH_SPECIFIED_SOURCE ( 'ANY', '', #78, .NOT_KNOWN. ) ;
#159 = ORIENTED_EDGE ( 'NONE', *, *, #381, .T. ) ;
#160 = FACE_OUTER_BOUND ( 'NONE', #31, .T. ) ;
#161 = ADVANCED_BREP_SHAPE_REPRESENTATION ( '3AC-12', ( #360, #311 ), #257 ) ;
#162 = PLANE ( 'NONE',  #80 ) ;
#163 = ADVANCED_FACE ( 'NONE', ( #200 ), #92, .T. ) ;
#164 = CYLINDRICAL_SURFACE ( 'NONE', #134, 6.125000000000000888 ) ;
#165 = DIRECTION ( 'NONE',  ( 0.0000000000000000000, 0.0000000000000000000, 1.000000000000000000 ) ) ;
#166 = VECTOR ( 'NONE', #217, 39.37007874015748143 ) ;
#167 = CARTESIAN_POINT ( 'NONE',  ( 3.875000000000000444, 2.449293598294705921E-16, -1.999999999999999778 ) ) ;
#168 = ADVANCED_FACE ( 'NONE', ( #25 ), #279, .T. ) ;
#169 = VECTOR ( 'NONE', #307, 39.37007874015748143 ) ;
#170 = AXIS2_PLACEMENT_3D ( 'NONE', #38, #75, #191 ) ;
#171 = AXIS2_PLACEMENT_3D ( 'NONE', #23, #331, #210 ) ;
#172 = FACE_OUTER_BOUND ( 'NONE', #251, .T. ) ;
#173 = EDGE_CURVE ( 'NONE', #33, #91, #361, .T. ) ;
#174 = VERTEX_POINT ( 'NONE', #342 ) ;
#175 = DIRECTION ( 'NONE',  ( 0.0000000000000000000, 0.0000000000000000000, 1.000000000000000000 ) ) ;
#176 = LINE ( 'NONE', #230, #135 ) ;
#177 = CARTESIAN_POINT ( 'NONE',  ( 0.0000000000000000000, 0.0000000000000000000, -1.515625000000000000 ) ) ;
#178 = CARTESIAN_POINT ( 'NONE',  ( 0.3125000000000016653, 0.0000000000000000000, 6.000000000000000888 ) ) ;
#179 = EDGE_CURVE ( 'NONE', #323, #278, #146, .T. ) ;
#180 = ORIENTED_EDGE ( 'NONE', *, *, #375, .F. ) ;
#181 = DIRECTION ( 'NONE',  ( 0.0000000000000000000, 0.0000000000000000000, -1.000000000000000000 ) ) ;
#182 = ORIENTED_EDGE ( 'NONE', *, *, #144, .T. ) ;
#183 = ORIENTED_EDGE ( 'NONE', *, *, #155, .T. ) ;
#184 = ORIENTED_EDGE ( 'NONE', *, *, #248, .F. ) ;
#185 = FILL_AREA_STYLE_COLOUR ( '', #328 ) ;
#186 = AXIS2_PLACEMENT_3D ( 'NONE', #378, #94, #96 ) ;
#187 = PRESENTATION_LAYER_ASSIGNMENT (  '', '', ( #143 ) ) ;
#188 = ORIENTED_EDGE ( 'NONE', *, *, #329, .F. ) ;
#189 = ORIENTED_EDGE ( 'NONE', *, *, #141, .F. ) ;
#190 = DIRECTION ( 'NONE',  ( 0.0000000000000000000, 0.0000000000000000000, 1.000000000000000000 ) ) ;
#191 = DIRECTION ( 'NONE',  ( 0.0000000000000000000, 0.0000000000000000000, 1.000000000000000000 ) ) ;
#192 = CARTESIAN_POINT ( 'NONE',  ( 0.0000000000000000000, 0.0000000000000000000, 0.0000000000000000000 ) ) ;
#193 = CARTESIAN_POINT ( 'NONE',  ( 3.875000000000001776, 0.0000000000000000000, 0.0000000000000000000 ) ) ;
#194 = AXIS2_PLACEMENT_3D ( 'NONE', #63, #89, #256 ) ;
#195 = UNCERTAINTY_MEASURE_WITH_UNIT (LENGTH_MEASURE( 1.000000000000000082E-05 ), #46, 'distance_accuracy_value', 'NONE');
#196 = AXIS2_PLACEMENT_3D ( 'NONE', #13, #140, #165 ) ;
#197 = ORIENTED_EDGE ( 'NONE', *, *, #369, .F. ) ;
#198 = LINE ( 'NONE', #177, #169 ) ;
#199 = ORIENTED_EDGE ( 'NONE', *, *, #329, .T. ) ;
#200 = FACE_OUTER_BOUND ( 'NONE', #102, .T. ) ;
#201 = AXIS2_PLACEMENT_3D ( 'NONE', #127, #65, #297 ) ;
#202 = ORIENTED_EDGE ( 'NONE', *, *, #294, .F. ) ;
#203 = CYLINDRICAL_SURFACE ( 'NONE', #19, 6.000000000000000888 ) ;
#204 = ORIENTED_EDGE ( 'NONE', *, *, #10, .T. ) ;
#205 = CARTESIAN_POINT ( 'NONE',  ( 0.0000000000000000000, 7.500961644777538671E-16, -6.125000000000000888 ) ) ;
#206 = ORIENTED_EDGE ( 'NONE', *, *, #369, .T. ) ;
#207 =( LENGTH_UNIT ( ) NAMED_UNIT ( * ) SI_UNIT ( $, .METRE. ) );
#208 = ORIENTED_EDGE ( 'NONE', *, *, #322, .F. ) ;
#209 = LINE ( 'NONE', #126, #284 ) ;
#210 = DIRECTION ( 'NONE',  ( 0.0000000000000000000, 0.0000000000000000000, 1.000000000000000000 ) ) ;
#211 = VERTEX_POINT ( 'NONE', #154 ) ;
#212 = DIRECTION ( 'NONE',  ( -1.000000000000000000, -0.0000000000000000000, -0.0000000000000000000 ) ) ;
#213 = DIRECTION ( 'NONE',  ( 0.0000000000000000000, 0.0000000000000000000, -1.000000000000000000 ) ) ;
#214 = DIRECTION ( 'NONE',  ( 1.000000000000000000, 0.0000000000000000000, 0.0000000000000000000 ) ) ;
#215 = EDGE_CURVE ( 'NONE', #66, #283, #176, .T. ) ;
#216 = DIRECTION ( 'NONE',  ( 1.000000000000000000, -0.0000000000000000000, -0.0000000000000000000 ) ) ;
#217 = DIRECTION ( 'NONE',  ( 1.000000000000000000, -0.0000000000000000000, -0.0000000000000000000 ) ) ;
#218 = APPLICATION_PROTOCOL_DEFINITION ( 'draft international standard', 'automotive_design', 1998, #6 ) ;
#219 = CIRCLE ( 'NONE', #124, 6.125000000000000000 ) ;
#220 = CARTESIAN_POINT ( 'NONE',  ( 0.0000000000000000000, 0.0000000000000000000, 0.0000000000000000000 ) ) ;
#221 = CARTESIAN_POINT ( 'NONE',  ( 3.875000000000001776, 0.0000000000000000000, 0.0000000000000000000 ) ) ;
#222 = ADVANCED_FACE ( 'NONE', ( #282, #27 ), #252, .F. ) ;
#223 = DIRECTION ( 'NONE',  ( 0.0000000000000000000, 0.0000000000000000000, -1.000000000000000000 ) ) ;
#224 = DIRECTION ( 'NONE',  ( 0.0000000000000000000, 0.0000000000000000000, 1.000000000000000000 ) ) ;
#225 = EDGE_LOOP ( 'NONE', ( #208, #64 ) ) ;
#226 = AXIS2_PLACEMENT_3D ( 'NONE', #103, #212, #190 ) ;
#227 = CARTESIAN_POINT ( 'NONE',  ( 0.0000000000000000000, 0.0000000000000000000, 0.0000000000000000000 ) ) ;
#228 = ORIENTED_EDGE ( 'NONE', *, *, #52, .F. ) ;
#229 = FACE_BOUND ( 'NONE', #8, .T. ) ;
#230 = CARTESIAN_POINT ( 'NONE',  ( 0.0000000000000000000, 7.500961644777538671E-16, -6.125000000000000888 ) ) ;
#231 = AXIS2_PLACEMENT_3D ( 'NONE', #314, #348, #280 ) ;
#232 = EDGE_LOOP ( 'NONE', ( #182, #100 ) ) ;
#233 = DIRECTION ( 'NONE',  ( 0.0000000000000000000, 0.0000000000000000000, 1.000000000000000000 ) ) ;
#234 = EDGE_CURVE ( 'NONE', #323, #351, #61, .T. ) ;
#235 = ORIENTED_EDGE ( 'NONE', *, *, #173, .F. ) ;
#236 = CARTESIAN_POINT ( 'NONE',  ( 0.0000000000000000000, 0.0000000000000000000, 0.0000000000000000000 ) ) ;
#237 = DIRECTION ( 'NONE',  ( -1.000000000000000000, -0.0000000000000000000, -0.0000000000000000000 ) ) ;
#238 = CARTESIAN_POINT ( 'NONE',  ( 0.0000000000000000000, 0.0000000000000000000, 0.0000000000000000000 ) ) ;
#239 = FILL_AREA_STYLE ('',( #185 ) ) ;
#240 = EDGE_CURVE ( 'NONE', #353, #107, #372, .T. ) ;
#241 = CARTESIAN_POINT ( 'NONE',  ( 0.3125000000000016653, 7.500961644777537685E-16, -6.125000000000000000 ) ) ;
#242 = LINE ( 'NONE', #364, #166 ) ;
#243 = SURFACE_STYLE_FILL_AREA ( #239 ) ;
#244 = SHAPE_DEFINITION_REPRESENTATION ( #82, #161 ) ;
#245 = PRESENTATION_LAYER_ASSIGNMENT (  '', '', ( #34 ) ) ;
#246 = EDGE_CURVE ( 'NONE', #351, #289, #352, .T. ) ;
#247 = APPLICATION_PROTOCOL_DEFINITION ( 'draft international standard', 'automotive_design', 1998, #366 ) ;
#248 = EDGE_CURVE ( 'NONE', #58, #174, #86, .T. ) ;
#249 = AXIS2_PLACEMENT_3D ( 'NONE', #345, #373, #223 ) ;
#250 = PRODUCT_DEFINITION ( 'UNKNOWN', '', #158, #49 ) ;
#251 = EDGE_LOOP ( 'NONE', ( #159, #1, #235, #69 ) ) ;
#252 = PLANE ( 'NONE',  #231 ) ;
#253 = DIRECTION ( 'NONE',  ( 0.0000000000000000000, 0.0000000000000000000, 1.000000000000000000 ) ) ;
#254 = FACE_OUTER_BOUND ( 'NONE', #347, .T. ) ;
#255 = AXIS2_PLACEMENT_3D ( 'NONE', #148, #26, #181 ) ;
#256 = DIRECTION ( 'NONE',  ( 0.0000000000000000000, 0.0000000000000000000, 1.000000000000000000 ) ) ;
#257 =( GEOMETRIC_REPRESENTATION_CONTEXT ( 3 ) GLOBAL_UNCERTAINTY_ASSIGNED_CONTEXT ( ( #195 ) ) GLOBAL_UNIT_ASSIGNED_CONTEXT ( ( #46, #275, #16 ) ) REPRESENTATION_CONTEXT ( 'NONE', 'WORKASPACE' ) );
#258 = CARTESIAN_POINT ( 'NONE',  ( 0.0000000000000000000, 7.347880794884120722E-16, -6.000000000000000888 ) ) ;
#259 = ORIENTED_EDGE ( 'NONE', *, *, #381, .F. ) ;
#260 = ORIENTED_EDGE ( 'NONE', *, *, #246, .F. ) ;
#261 = DIRECTION ( 'NONE',  ( -1.000000000000000000, -0.0000000000000000000, -0.0000000000000000000 ) ) ;
#262 = AXIS2_PLACEMENT_3D ( 'NONE', #238, #216, #359 ) ;
#263 = ORIENTED_EDGE ( 'NONE', *, *, #349, .F. ) ;
#264 = ORIENTED_EDGE ( 'NONE', *, *, #179, .T. ) ;
#265 = CARTESIAN_POINT ( 'NONE',  ( 3.875000000000001776, 7.347880794884120722E-16, -6.000000000000000888 ) ) ;
#266 = CARTESIAN_POINT ( 'NONE',  ( 0.3125000000000016653, 6.000000000000000888, 0.0000000000000000000 ) ) ;
#267 = LENGTH_MEASURE_WITH_UNIT ( LENGTH_MEASURE( 0.02539999999999999897 ), #327 );
#268 = CYLINDRICAL_SURFACE ( 'NONE', #262, 1.515625000000000000 ) ;
#269 = FACE_OUTER_BOUND ( 'NONE', #7, .T. ) ;
#270 = CARTESIAN_POINT ( 'NONE',  ( 0.3125000000000016653, 7.347880794884120722E-16, -6.000000000000000888 ) ) ;
#271 = FILL_AREA_STYLE_COLOUR ( '', #81 ) ;
#272 = VECTOR ( 'NONE', #116, 39.37007874015748143 ) ;
#273 = FILL_AREA_STYLE ('',( #271 ) ) ;
#274 = ADVANCED_FACE ( 'NONE', ( #121, #344 ), #150, .F. ) ;
#275 =( NAMED_UNIT ( * ) PLANE_ANGLE_UNIT ( ) SI_UNIT ( $, .RADIAN. ) );
#276 = CARTESIAN_POINT ( 'NONE',  ( 0.0000000000000000000, 0.0000000000000000000, 0.0000000000000000000 ) ) ;
#277 = CYLINDRICAL_SURFACE ( 'NONE', #171, 2.000000000000000000 ) ;
#278 = VERTEX_POINT ( 'NONE', #119 ) ;
#279 = CYLINDRICAL_SURFACE ( 'NONE', #54, 6.125000000000000888 ) ;
#280 = DIRECTION ( 'NONE',  ( -0.0000000000000000000, 0.0000000000000000000, 1.000000000000000000 ) ) ;
#281 = ADVANCED_FACE ( 'NONE', ( #229, #254 ), #123, .F. ) ;
#282 = FACE_OUTER_BOUND ( 'NONE', #225, .T. ) ;
#283 = VERTEX_POINT ( 'NONE', #205 ) ;
#284 = VECTOR ( 'NONE', #330, 39.37007874015748143 ) ;
#285 = AXIS2_PLACEMENT_3D ( 'NONE', #236, #291, #213 ) ;
#286 = ORIENTED_EDGE ( 'NONE', *, *, #52, .T. ) ;
#287 = FACE_OUTER_BOUND ( 'NONE', #128, .T. ) ;
#288 = ADVANCED_FACE ( 'NONE', ( #287 ), #203, .T. ) ;
#289 = VERTEX_POINT ( 'NONE', #178 ) ;
#290 = ORIENTED_EDGE ( 'NONE', *, *, #240, .T. ) ;
#291 = DIRECTION ( 'NONE',  ( 1.000000000000000000, 0.0000000000000000000, 0.0000000000000000000 ) ) ;
#292 = MECHANICAL_DESIGN_GEOMETRIC_PRESENTATION_REPRESENTATION (  '', ( #34 ), #368 ) ;
#293 = VERTEX_POINT ( 'NONE', #380 ) ;
#294 = EDGE_CURVE ( 'NONE', #29, #107, #198, .T. ) ;
#295 =( NAMED_UNIT ( * ) SI_UNIT ( $, .STERADIAN. ) SOLID_ANGLE_UNIT ( ) );
#296 = CARTESIAN_POINT ( 'NONE',  ( 0.3125000000000016653, 0.0000000000000000000, 0.0000000000000000000 ) ) ;
#297 = DIRECTION ( 'NONE',  ( 0.0000000000000000000, 0.0000000000000000000, 1.000000000000000000 ) ) ;
#298 = DIRECTION ( 'NONE',  ( 1.000000000000000000, -0.0000000000000000000, -0.0000000000000000000 ) ) ;
#299 = CARTESIAN_POINT ( 'NONE',  ( 9.375000000000000000, 0.0000000000000000000, 0.0000000000000000000 ) ) ;
#300 = AXIS2_PLACEMENT_3D ( 'NONE', #276, #310, #57 ) ;
#301 = SURFACE_STYLE_USAGE ( .BOTH. , #50 ) ;
#302 = CIRCLE ( 'NONE', #157, 6.125000000000000888 ) ;
#303 = AXIS2_PLACEMENT_3D ( 'NONE', #68, #99, #130 ) ;
#304 = ADVANCED_FACE ( 'NONE', ( #172 ), #277, .T. ) ;
#305 =( CONVERSION_BASED_UNIT ( 'INCH', #48 ) LENGTH_UNIT ( ) NAMED_UNIT ( #371 ) );
#306 = CARTESIAN_POINT ( 'NONE',  ( 0.0000000000000000000, 0.0000000000000000000, 0.0000000000000000000 ) ) ;
#307 = DIRECTION ( 'NONE',  ( 1.000000000000000000, -0.0000000000000000000, -0.0000000000000000000 ) ) ;
#308 = VECTOR ( 'NONE', #261, 39.37007874015748143 ) ;
#309 = ORIENTED_EDGE ( 'NONE', *, *, #40, .F. ) ;
#310 = DIRECTION ( 'NONE',  ( -1.000000000000000000, -0.0000000000000000000, -0.0000000000000000000 ) ) ;
#311 = AXIS2_PLACEMENT_3D ( 'NONE', #220, #370, #338 ) ;
#312 = DIRECTION ( 'NONE',  ( 0.0000000000000000000, 0.0000000000000000000, 1.000000000000000000 ) ) ;
#313 = EDGE_LOOP ( 'NONE', ( #189, #36, #125, #206 ) ) ;
#314 = CARTESIAN_POINT ( 'NONE',  ( 3.875000000000001332, 1.999999999999999778, 0.0000000000000000000 ) ) ;
#315 = ORIENTED_EDGE ( 'NONE', *, *, #141, .T. ) ;
#316 = EDGE_LOOP ( 'NONE', ( #88, #356, #188, #122 ) ) ;
#317 = CIRCLE ( 'NONE', #285, 1.515625000000000000 ) ;
#318 = DIRECTION ( 'NONE',  ( 0.0000000000000000000, 0.0000000000000000000, 1.000000000000000000 ) ) ;
#319 = EDGE_CURVE ( 'NONE', #174, #33, #5, .T. ) ;
#320 = ORIENTED_EDGE ( 'NONE', *, *, #234, .T. ) ;
#321 = CARTESIAN_POINT ( 'NONE',  ( 9.375000000000000000, 1.856105304957707054E-16, 1.515625000000000000 ) ) ;
#322 = EDGE_CURVE ( 'NONE', #278, #323, #90, .T. ) ;
#323 = VERTEX_POINT ( 'NONE', #265 ) ;
#324 = DIRECTION ( 'NONE',  ( -1.000000000000000000, -0.0000000000000000000, -0.0000000000000000000 ) ) ;
#325 = CYLINDRICAL_SURFACE ( 'NONE', #196, 2.000000000000000000 ) ;
#326 = EDGE_LOOP ( 'NONE', ( #382, #315, #290, #202 ) ) ;
#327 =( LENGTH_UNIT ( ) NAMED_UNIT ( * ) SI_UNIT ( $, .METRE. ) );
#328 = COLOUR_RGB ( '',0.7921568627450980005, 0.8196078431372548767, 0.9333333333333333481 ) ;
#329 = EDGE_CURVE ( 'NONE', #156, #283, #302, .T. ) ;
#330 = DIRECTION ( 'NONE',  ( -1.000000000000000000, -0.0000000000000000000, -0.0000000000000000000 ) ) ;
#331 = DIRECTION ( 'NONE',  ( -1.000000000000000000, -0.0000000000000000000, -0.0000000000000000000 ) ) ;
#332 = FACE_OUTER_BOUND ( 'NONE', #313, .T. ) ;
#333 = DIRECTION ( 'NONE',  ( 0.0000000000000000000, 0.0000000000000000000, 1.000000000000000000 ) ) ;
#334 = CARTESIAN_POINT ( 'NONE',  ( 0.3125000000000016653, 0.0000000000000000000, 0.0000000000000000000 ) ) ;
#335 =( NAMED_UNIT ( * ) SI_UNIT ( $, .STERADIAN. ) SOLID_ANGLE_UNIT ( ) );
#336 = AXIS2_PLACEMENT_3D ( 'NONE', #118, #151, #224 ) ;
#337 = AXIS2_PLACEMENT_3D ( 'NONE', #299, #214, #42 ) ;
#338 = DIRECTION ( 'NONE',  ( 1.000000000000000000, 0.0000000000000000000, 0.0000000000000000000 ) ) ;
#339 = AXIS2_PLACEMENT_3D ( 'NONE', #221, #87, #312 ) ;
#340 = DIMENSIONAL_EXPONENTS ( 1.000000000000000000, 0.0000000000000000000, 0.0000000000000000000, 0.0000000000000000000, 0.0000000000000000000, 0.0000000000000000000, 0.0000000000000000000 ) ;
#341 = SURFACE_STYLE_FILL_AREA ( #273 ) ;
#342 = CARTESIAN_POINT ( 'NONE',  ( 9.375000000000000000, 0.0000000000000000000, 2.000000000000000000 ) ) ;
#343 = ORIENTED_EDGE ( 'NONE', *, *, #10, .F. ) ;
#344 = FACE_OUTER_BOUND ( 'NONE', #120, .T. ) ;
#345 = CARTESIAN_POINT ( 'NONE',  ( 0.0000000000000000000, 0.0000000000000000000, 0.0000000000000000000 ) ) ;
#346 = DIRECTION ( 'NONE',  ( -1.000000000000000000, -0.0000000000000000000, -0.0000000000000000000 ) ) ;
#347 = EDGE_LOOP ( 'NONE', ( #259, #184 ) ) ;
#348 = DIRECTION ( 'NONE',  ( -1.000000000000000000, 0.0000000000000000000, -0.0000000000000000000 ) ) ;
#349 = EDGE_CURVE ( 'NONE', #283, #156, #367, .T. ) ;
#350 = ORIENTED_EDGE ( 'NONE', *, *, #234, .F. ) ;
#351 = VERTEX_POINT ( 'NONE', #270 ) ;
#352 = CIRCLE ( 'NONE', #336, 6.000000000000000888 ) ;
#353 = VERTEX_POINT ( 'NONE', #321 ) ;
#354 = FACE_OUTER_BOUND ( 'NONE', #101, .T. ) ;
#355 = DIRECTION ( 'NONE',  ( -1.000000000000000000, -0.0000000000000000000, -0.0000000000000000000 ) ) ;
#356 = ORIENTED_EDGE ( 'NONE', *, *, #215, .T. ) ;
#357 = CARTESIAN_POINT ( 'NONE',  ( 3.875000000000000444, 0.0000000000000000000, 1.999999999999999778 ) ) ;
#358 = EDGE_CURVE ( 'NONE', #293, #156, #362, .T. ) ;
#359 = DIRECTION ( 'NONE',  ( 0.0000000000000000000, 0.0000000000000000000, -1.000000000000000000 ) ) ;
#360 = MANIFOLD_SOLID_BREP ( 'Revolve2', #85 ) ;
#361 = CIRCLE ( 'NONE', #18, 1.999999999999999778 ) ;
#362 = LINE ( 'NONE', #108, #105 ) ;
#363 = ADVANCED_FACE ( 'NONE', ( #160 ), #325, .T. ) ;
#364 = CARTESIAN_POINT ( 'NONE',  ( 0.0000000000000000000, 1.856105304957707054E-16, 1.515625000000000000 ) ) ;
#365 = PRESENTATION_STYLE_ASSIGNMENT (( #301 ) ) ;
#366 = APPLICATION_CONTEXT ( 'automotive_design' ) ;
#367 = CIRCLE ( 'NONE', #201, 6.125000000000000888 ) ;
#368 =( GEOMETRIC_REPRESENTATION_CONTEXT ( 3 ) GLOBAL_UNCERTAINTY_ASSIGNED_CONTEXT ( ( #111 ) ) GLOBAL_UNIT_ASSIGNED_CONTEXT ( ( #35, #73, #295 ) ) REPRESENTATION_CONTEXT ( 'NONE', 'WORKASPACE' ) );
#369 = EDGE_CURVE ( 'NONE', #107, #353, #136, .T. ) ;
#370 = DIRECTION ( 'NONE',  ( 0.0000000000000000000, 0.0000000000000000000, 1.000000000000000000 ) ) ;
#371 = DIMENSIONAL_EXPONENTS ( 1.000000000000000000, 0.0000000000000000000, 0.0000000000000000000, 0.0000000000000000000, 0.0000000000000000000, 0.0000000000000000000, 0.0000000000000000000 ) ;
#372 = CIRCLE ( 'NONE', #255, 1.515625000000000000 ) ;
#373 = DIRECTION ( 'NONE',  ( 1.000000000000000000, 0.0000000000000000000, 0.0000000000000000000 ) ) ;
#374 = ORIENTED_EDGE ( 'NONE', *, *, #248, .T. ) ;
#375 = EDGE_CURVE ( 'NONE', #91, #33, #44, .T. ) ;
#376 = DIRECTION ( 'NONE',  ( -1.000000000000000000, -0.0000000000000000000, -0.0000000000000000000 ) ) ;
#377 = CARTESIAN_POINT ( 'NONE',  ( 3.875000000000000444, 0.0000000000000000000, 0.0000000000000000000 ) ) ;
#378 = CARTESIAN_POINT ( 'NONE',  ( 9.375000000000000000, 0.0000000000000000000, 0.0000000000000000000 ) ) ;
#379 = CIRCLE ( 'NONE', #226, 6.125000000000000000 ) ;
#380 = CARTESIAN_POINT ( 'NONE',  ( 0.3125000000000016653, 0.0000000000000000000, 6.125000000000000000 ) ) ;
#381 = EDGE_CURVE ( 'NONE', #174, #58, #55, .T. ) ;
#382 = ORIENTED_EDGE ( 'NONE', *, *, #155, .F. ) ;
#383 = DIRECTION ( 'NONE',  ( 0.0000000000000000000, 0.0000000000000000000, -1.000000000000000000 ) ) ;
ENDSEC;
END-ISO-10303-21;
