ISO-10303-21;
HEADER;
FILE_DESCRIPTION (( 'STEP AP214' ),
    '1' );
FILE_NAME ('3AC-10.STEP',
    '2020-10-26T23:44:38',
    ( '' ),
    ( '' ),
    'SwSTEP 2.0',
    'SolidWorks 2019',
    '' );
FILE_SCHEMA (( 'AUTOMOTIVE_DESIGN' ));
ENDSEC;

DATA;
#1 = AXIS2_PLACEMENT_3D ( 'NONE', #306, #254, #326 ) ;
#2 = VERTEX_POINT ( 'NONE', #59 ) ;
#3 = CARTESIAN_POINT ( 'NONE',  ( 0.0000000000000000000, 5.000000000000000000, 0.0000000000000000000 ) ) ;
#4 = AXIS2_PLACEMENT_3D ( 'NONE', #78, #259, #308 ) ;
#5 = DIRECTION ( 'NONE',  ( 1.000000000000000000, 0.0000000000000000000, 0.0000000000000000000 ) ) ;
#6 = MECHANICAL_DESIGN_GEOMETRIC_PRESENTATION_REPRESENTATION (  '', ( #186 ), #234 ) ;
#7 = CYLINDRICAL_SURFACE ( 'NONE', #122, 2.000000000000000000 ) ;
#8 = PLANE ( 'NONE',  #15 ) ;
#9 = EDGE_CURVE ( 'NONE', #261, #19, #275, .T. ) ;
#10 = DIRECTION ( 'NONE',  ( -1.000000000000000000, -0.0000000000000000000, -0.0000000000000000000 ) ) ;
#11 = CARTESIAN_POINT ( 'NONE',  ( 3.875000000000000444, 0.0000000000000000000, 0.0000000000000000000 ) ) ;
#12 = CARTESIAN_POINT ( 'NONE',  ( 0.3125000000000005551, 6.276314845630187190E-16, -5.125000000000001776 ) ) ;
#13 = CIRCLE ( 'NONE', #225, 1.515625000000000000 ) ;
#14 =( NAMED_UNIT ( * ) PLANE_ANGLE_UNIT ( ) SI_UNIT ( $, .RADIAN. ) );
#15 = AXIS2_PLACEMENT_3D ( 'NONE', #150, #302, #221 ) ;
#16 = EDGE_CURVE ( 'NONE', #117, #77, #45, .T. ) ;
#17 = VERTEX_POINT ( 'NONE', #97 ) ;
#18 = CARTESIAN_POINT ( 'NONE',  ( 0.0000000000000000000, 0.0000000000000000000, 5.000000000000000000 ) ) ;
#19 = VERTEX_POINT ( 'NONE', #247 ) ;
#20 = EDGE_LOOP ( 'NONE', ( #50, #372 ) ) ;
#21 = CIRCLE ( 'NONE', #245, 1.999999999999999778 ) ;
#22 = EDGE_LOOP ( 'NONE', ( #28, #238, #319, #143 ) ) ;
#23 = ADVANCED_FACE ( 'NONE', ( #299 ), #328, .F. ) ;
#24 = COLOUR_RGB ( '',0.7921568627450980005, 0.8196078431372548767, 0.9333333333333333481 ) ;
#25 = CARTESIAN_POINT ( 'NONE',  ( 9.375000000000000000, 0.0000000000000000000, 0.0000000000000000000 ) ) ;
#26 = EDGE_CURVE ( 'NONE', #82, #342, #215, .T. ) ;
#27 = FILL_AREA_STYLE_COLOUR ( '', #24 ) ;
#28 = ORIENTED_EDGE ( 'NONE', *, *, #137, .F. ) ;
#29 = VERTEX_POINT ( 'NONE', #325 ) ;
#30 = CIRCLE ( 'NONE', #348, 5.000000000000000000 ) ;
#31 = APPLICATION_PROTOCOL_DEFINITION ( 'draft international standard', 'automotive_design', 1998, #106 ) ;
#32 = EDGE_LOOP ( 'NONE', ( #347, #284, #48, #55 ) ) ;
#33 = AXIS2_PLACEMENT_3D ( 'NONE', #216, #252, #70 ) ;
#34 = FACE_OUTER_BOUND ( 'NONE', #136, .T. ) ;
#35 = LINE ( 'NONE', #152, #58 ) ;
#36 = FACE_BOUND ( 'NONE', #139, .T. ) ;
#37 =( CONVERSION_BASED_UNIT ( 'INCH', #274 ) LENGTH_UNIT ( ) NAMED_UNIT ( #214 ) );
#38 = FACE_BOUND ( 'NONE', #20, .T. ) ;
#39 = PRODUCT_RELATED_PRODUCT_CATEGORY ( 'part', '', ( #262 ) ) ;
#40 = CARTESIAN_POINT ( 'NONE',  ( 3.875000000000000444, 0.0000000000000000000, 5.000000000000000000 ) ) ;
#41 = CYLINDRICAL_SURFACE ( 'NONE', #228, 5.000000000000000000 ) ;
#42 = DIRECTION ( 'NONE',  ( 0.0000000000000000000, 0.0000000000000000000, 1.000000000000000000 ) ) ;
#43 = SURFACE_STYLE_FILL_AREA ( #264 ) ;
#44 = UNCERTAINTY_MEASURE_WITH_UNIT (LENGTH_MEASURE( 1.000000000000000082E-05 ), #110, 'distance_accuracy_value', 'NONE');
#45 = CIRCLE ( 'NONE', #203, 1.515625000000000000 ) ;
#46 = PLANE ( 'NONE',  #209 ) ;
#47 = LINE ( 'NONE', #164, #108 ) ;
#48 = ORIENTED_EDGE ( 'NONE', *, *, #379, .F. ) ;
#49 = FACE_BOUND ( 'NONE', #79, .T. ) ;
#50 = ORIENTED_EDGE ( 'NONE', *, *, #199, .T. ) ;
#51 = DIMENSIONAL_EXPONENTS ( 1.000000000000000000, 0.0000000000000000000, 0.0000000000000000000, 0.0000000000000000000, 0.0000000000000000000, 0.0000000000000000000, 0.0000000000000000000 ) ;
#52 = VERTEX_POINT ( 'NONE', #272 ) ;
#53 = AXIS2_PLACEMENT_3D ( 'NONE', #158, #280, #358 ) ;
#54 = EDGE_CURVE ( 'NONE', #170, #2, #35, .T. ) ;
#55 = ORIENTED_EDGE ( 'NONE', *, *, #343, .F. ) ;
#56 = FACE_OUTER_BOUND ( 'NONE', #266, .T. ) ;
#57 = ORIENTED_EDGE ( 'NONE', *, *, #232, .F. ) ;
#58 = VECTOR ( 'NONE', #63, 39.37007874015748143 ) ;
#59 = CARTESIAN_POINT ( 'NONE',  ( 0.0000000000000000000, 6.276314845630187190E-16, -5.125000000000001776 ) ) ;
#60 = EDGE_CURVE ( 'NONE', #149, #261, #381, .T. ) ;
#61 = AXIS2_PLACEMENT_3D ( 'NONE', #187, #157, #362 ) ;
#62 = CARTESIAN_POINT ( 'NONE',  ( 9.375000000000000000, 0.0000000000000000000, 0.0000000000000000000 ) ) ;
#63 = DIRECTION ( 'NONE',  ( -1.000000000000000000, -0.0000000000000000000, -0.0000000000000000000 ) ) ;
#64 = CARTESIAN_POINT ( 'NONE',  ( 0.0000000000000000000, 0.0000000000000000000, 0.0000000000000000000 ) ) ;
#65 =( NAMED_UNIT ( * ) SI_UNIT ( $, .STERADIAN. ) SOLID_ANGLE_UNIT ( ) );
#66 =( NAMED_UNIT ( * ) PLANE_ANGLE_UNIT ( ) SI_UNIT ( $, .RADIAN. ) );
#67 = DIRECTION ( 'NONE',  ( 0.0000000000000000000, 0.0000000000000000000, 1.000000000000000000 ) ) ;
#68 = VECTOR ( 'NONE', #94, 39.37007874015748143 ) ;
#69 = DIRECTION ( 'NONE',  ( 0.0000000000000000000, 0.0000000000000000000, 1.000000000000000000 ) ) ;
#70 = DIRECTION ( 'NONE',  ( 0.0000000000000000000, 0.0000000000000000000, 1.000000000000000000 ) ) ;
#71 = DIRECTION ( 'NONE',  ( -1.000000000000000000, -0.0000000000000000000, -0.0000000000000000000 ) ) ;
#72 = FACE_OUTER_BOUND ( 'NONE', #355, .T. ) ;
#73 = CIRCLE ( 'NONE', #320, 5.125000000000001776 ) ;
#74 = UNCERTAINTY_MEASURE_WITH_UNIT (LENGTH_MEASURE( 1.000000000000000082E-05 ), #37, 'distance_accuracy_value', 'NONE');
#75 = EDGE_CURVE ( 'NONE', #261, #149, #255, .T. ) ;
#76 = FACE_OUTER_BOUND ( 'NONE', #344, .T. ) ;
#77 = VERTEX_POINT ( 'NONE', #172 ) ;
#78 = CARTESIAN_POINT ( 'NONE',  ( 0.0000000000000000000, 0.0000000000000000000, 0.0000000000000000000 ) ) ;
#79 = EDGE_LOOP ( 'NONE', ( #289, #318 ) ) ;
#80 = DIRECTION ( 'NONE',  ( -0.0000000000000000000, 0.0000000000000000000, 1.000000000000000000 ) ) ;
#81 = EDGE_CURVE ( 'NONE', #249, #82, #197, .T. ) ;
#82 = VERTEX_POINT ( 'NONE', #116 ) ;
#83 = CIRCLE ( 'NONE', #282, 1.999999999999999778 ) ;
#84 = ORIENTED_EDGE ( 'NONE', *, *, #60, .T. ) ;
#85 = APPLICATION_CONTEXT ( 'automotive_design' ) ;
#86 = ADVANCED_FACE ( 'NONE', ( #56 ), #267, .T. ) ;
#87 = DIRECTION ( 'NONE',  ( 0.0000000000000000000, 0.0000000000000000000, 1.000000000000000000 ) ) ;
#88 = PRESENTATION_LAYER_ASSIGNMENT (  '', '', ( #186 ) ) ;
#89 = PRESENTATION_STYLE_ASSIGNMENT (( #354 ) ) ;
#90 = ORIENTED_EDGE ( 'NONE', *, *, #343, .T. ) ;
#91 =( CONVERSION_BASED_UNIT ( 'INCH', #356 ) LENGTH_UNIT ( ) NAMED_UNIT ( #51 ) );
#92 = AXIS2_PLACEMENT_3D ( 'NONE', #376, #240, #208 ) ;
#93 = SHAPE_DEFINITION_REPRESENTATION ( #345, #194 ) ;
#94 = DIRECTION ( 'NONE',  ( -1.000000000000000000, -0.0000000000000000000, -0.0000000000000000000 ) ) ;
#95 = MANIFOLD_SOLID_BREP ( 'Revolve2', #241 ) ;
#96 = DIRECTION ( 'NONE',  ( 0.0000000000000000000, 0.0000000000000000000, 1.000000000000000000 ) ) ;
#97 = CARTESIAN_POINT ( 'NONE',  ( 0.3125000000000005551, 0.0000000000000000000, 5.125000000000001776 ) ) ;
#98 = FACE_OUTER_BOUND ( 'NONE', #322, .T. ) ;
#99 = CARTESIAN_POINT ( 'NONE',  ( 0.0000000000000000000, 0.0000000000000000000, 0.0000000000000000000 ) ) ;
#100 = DIRECTION ( 'NONE',  ( 0.0000000000000000000, 0.0000000000000000000, 1.000000000000000000 ) ) ;
#101 = MECHANICAL_DESIGN_GEOMETRIC_PRESENTATION_REPRESENTATION (  '', ( #154 ), #365 ) ;
#102 = DIRECTION ( 'NONE',  ( 0.0000000000000000000, 0.0000000000000000000, 1.000000000000000000 ) ) ;
#103 = CARTESIAN_POINT ( 'NONE',  ( 0.0000000000000000000, 0.0000000000000000000, 0.0000000000000000000 ) ) ;
#104 = DIRECTION ( 'NONE',  ( 1.000000000000000000, 0.0000000000000000000, 0.0000000000000000000 ) ) ;
#105 = CIRCLE ( 'NONE', #148, 5.125000000000001776 ) ;
#106 = APPLICATION_CONTEXT ( 'automotive_design' ) ;
#107 = FACE_OUTER_BOUND ( 'NONE', #204, .T. ) ;
#108 = VECTOR ( 'NONE', #257, 39.37007874015748143 ) ;
#109 = ORIENTED_EDGE ( 'NONE', *, *, #137, .T. ) ;
#110 =( CONVERSION_BASED_UNIT ( 'INCH', #371 ) LENGTH_UNIT ( ) NAMED_UNIT ( #244 ) );
#111 = ORIENTED_EDGE ( 'NONE', *, *, #54, .F. ) ;
#112 = EDGE_CURVE ( 'NONE', #52, #342, #83, .T. ) ;
#113 = ORIENTED_EDGE ( 'NONE', *, *, #260, .F. ) ;
#114 = ORIENTED_EDGE ( 'NONE', *, *, #251, .T. ) ;
#115 = CIRCLE ( 'NONE', #53, 1.515625000000000000 ) ;
#116 = CARTESIAN_POINT ( 'NONE',  ( 9.375000000000000000, 0.0000000000000000000, 2.000000000000000000 ) ) ;
#117 = VERTEX_POINT ( 'NONE', #279 ) ;
#118 = SURFACE_STYLE_FILL_AREA ( #144 ) ;
#119 = AXIS2_PLACEMENT_3D ( 'NONE', #295, #173, #270 ) ;
#120 = CIRCLE ( 'NONE', #258, 2.000000000000000000 ) ;
#121 = CARTESIAN_POINT ( 'NONE',  ( 0.0000000000000000000, 6.123233995736766282E-16, -5.000000000000000000 ) ) ;
#122 = AXIS2_PLACEMENT_3D ( 'NONE', #250, #360, #67 ) ;
#123 = DIRECTION ( 'NONE',  ( -1.000000000000000000, -0.0000000000000000000, -0.0000000000000000000 ) ) ;
#124 =( LENGTH_UNIT ( ) NAMED_UNIT ( * ) SI_UNIT ( $, .METRE. ) );
#125 = EDGE_CURVE ( 'NONE', #17, #170, #298, .T. ) ;
#126 = DIRECTION ( 'NONE',  ( 0.0000000000000000000, 0.0000000000000000000, -1.000000000000000000 ) ) ;
#127 = CARTESIAN_POINT ( 'NONE',  ( 0.0000000000000000000, 0.0000000000000000000, 5.125000000000001776 ) ) ;
#128 = FACE_OUTER_BOUND ( 'NONE', #169, .T. ) ;
#129 = DIRECTION ( 'NONE',  ( 1.000000000000000000, -0.0000000000000000000, -0.0000000000000000000 ) ) ;
#130 = DIRECTION ( 'NONE',  ( 0.0000000000000000000, 0.0000000000000000000, 1.000000000000000000 ) ) ;
#131 = LINE ( 'NONE', #366, #327 ) ;
#132 = PRODUCT_DEFINITION_CONTEXT ( 'detailed design', #106, 'design' ) ;
#133 = DIRECTION ( 'NONE',  ( -1.000000000000000000, -0.0000000000000000000, -0.0000000000000000000 ) ) ;
#134 = ORIENTED_EDGE ( 'NONE', *, *, #375, .T. ) ;
#135 = CARTESIAN_POINT ( 'NONE',  ( 0.0000000000000000000, 0.0000000000000000000, 0.0000000000000000000 ) ) ;
#136 = EDGE_LOOP ( 'NONE', ( #236, #235, #353, #213 ) ) ;
#137 = EDGE_CURVE ( 'NONE', #77, #237, #131, .T. ) ;
#138 = FILL_AREA_STYLE_COLOUR ( '', #210 ) ;
#139 = EDGE_LOOP ( 'NONE', ( #269, #114 ) ) ;
#140 = ORIENTED_EDGE ( 'NONE', *, *, #81, .F. ) ;
#141 = DIRECTION ( 'NONE',  ( -1.000000000000000000, -0.0000000000000000000, -0.0000000000000000000 ) ) ;
#142 = EDGE_CURVE ( 'NONE', #117, #200, #226, .T. ) ;
#143 = ORIENTED_EDGE ( 'NONE', *, *, #166, .T. ) ;
#144 = FILL_AREA_STYLE ('',( #27 ) ) ;
#145 = ORIENTED_EDGE ( 'NONE', *, *, #60, .F. ) ;
#146 = ORIENTED_EDGE ( 'NONE', *, *, #277, .F. ) ;
#147 =( NAMED_UNIT ( * ) SI_UNIT ( $, .STERADIAN. ) SOLID_ANGLE_UNIT ( ) );
#148 = AXIS2_PLACEMENT_3D ( 'NONE', #64, #192, #130 ) ;
#149 = VERTEX_POINT ( 'NONE', #40 ) ;
#150 = CARTESIAN_POINT ( 'NONE',  ( 3.875000000000000444, 1.999999999999999778, 0.0000000000000000000 ) ) ;
#151 = ADVANCED_FACE ( 'NONE', ( #256 ), #335, .T. ) ;
#152 = CARTESIAN_POINT ( 'NONE',  ( 0.0000000000000000000, 6.276314845630187190E-16, -5.125000000000001776 ) ) ;
#153 = CARTESIAN_POINT ( 'NONE',  ( 9.375000000000000000, 1.856105304957707054E-16, 1.515625000000000000 ) ) ;
#154 = STYLED_ITEM ( 'NONE', ( #89 ), #95 ) ;
#155 = PRODUCT_CONTEXT ( 'NONE', #85, 'mechanical' ) ;
#156 = DIRECTION ( 'NONE',  ( 1.000000000000000000, 0.0000000000000000000, 0.0000000000000000000 ) ) ;
#157 = DIRECTION ( 'NONE',  ( -1.000000000000000000, -0.0000000000000000000, -0.0000000000000000000 ) ) ;
#158 = CARTESIAN_POINT ( 'NONE',  ( 9.375000000000000000, 0.0000000000000000000, 0.0000000000000000000 ) ) ;
#159 = EDGE_CURVE ( 'NONE', #19, #29, #30, .T. ) ;
#160 = CARTESIAN_POINT ( 'NONE',  ( 9.375000000000000000, 0.0000000000000000000, 0.0000000000000000000 ) ) ;
#161 = SURFACE_SIDE_STYLE ('',( #43 ) ) ;
#162 = AXIS2_PLACEMENT_3D ( 'NONE', #351, #294, #87 ) ;
#163 = VECTOR ( 'NONE', #129, 39.37007874015748143 ) ;
#164 = CARTESIAN_POINT ( 'NONE',  ( 0.0000000000000000000, 0.0000000000000000000, 5.125000000000001776 ) ) ;
#165 = CYLINDRICAL_SURFACE ( 'NONE', #4, 1.515625000000000000 ) ;
#166 = EDGE_CURVE ( 'NONE', #200, #237, #13, .T. ) ;
#167 = ORIENTED_EDGE ( 'NONE', *, *, #159, .F. ) ;
#168 = ORIENTED_EDGE ( 'NONE', *, *, #112, .F. ) ;
#169 = EDGE_LOOP ( 'NONE', ( #113, #140 ) ) ;
#170 = VERTEX_POINT ( 'NONE', #12 ) ;
#171 = EDGE_CURVE ( 'NONE', #29, #19, #239, .T. ) ;
#172 = CARTESIAN_POINT ( 'NONE',  ( 0.0000000000000000000, 1.856105304957707054E-16, 1.515625000000000000 ) ) ;
#173 = DIRECTION ( 'NONE',  ( -1.000000000000000000, -0.0000000000000000000, -0.0000000000000000000 ) ) ;
#174 = EDGE_LOOP ( 'NONE', ( #286, #374 ) ) ;
#175 = EDGE_CURVE ( 'NONE', #237, #200, #115, .T. ) ;
#176 = EDGE_LOOP ( 'NONE', ( #380, #357, #134, #167 ) ) ;
#177 = DIRECTION ( 'NONE',  ( 0.0000000000000000000, 0.0000000000000000000, 1.000000000000000000 ) ) ;
#178 = CARTESIAN_POINT ( 'NONE',  ( 0.0000000000000000000, 0.0000000000000000000, 2.000000000000000000 ) ) ;
#179 = CARTESIAN_POINT ( 'NONE',  ( 0.0000000000000000000, 2.449293598294706414E-16, -2.000000000000000000 ) ) ;
#180 = AXIS2_PLACEMENT_3D ( 'NONE', #103, #218, #336 ) ;
#181 = DIRECTION ( 'NONE',  ( 1.000000000000000000, -0.0000000000000000000, -0.0000000000000000000 ) ) ;
#182 = DIRECTION ( 'NONE',  ( 0.0000000000000000000, 0.0000000000000000000, 1.000000000000000000 ) ) ;
#183 = ADVANCED_FACE ( 'NONE', ( #227 ), #278, .T. ) ;
#184 = APPLICATION_PROTOCOL_DEFINITION ( 'draft international standard', 'automotive_design', 1998, #85 ) ;
#185 = FACE_OUTER_BOUND ( 'NONE', #176, .T. ) ;
#186 = STYLED_ITEM ( 'NONE', ( #361 ), #194 ) ;
#187 = CARTESIAN_POINT ( 'NONE',  ( 0.3125000000000005551, 0.0000000000000000000, 0.0000000000000000000 ) ) ;
#188 = CARTESIAN_POINT ( 'NONE',  ( 9.375000000000000000, 2.449293598294706414E-16, -2.000000000000000000 ) ) ;
#189 = ADVANCED_FACE ( 'NONE', ( #72, #38 ), #8, .F. ) ;
#190 = CIRCLE ( 'NONE', #1, 1.515625000000000000 ) ;
#191 = CARTESIAN_POINT ( 'NONE',  ( 0.3125000000000005551, 0.0000000000000000000, 0.0000000000000000000 ) ) ;
#192 = DIRECTION ( 'NONE',  ( -1.000000000000000000, -0.0000000000000000000, -0.0000000000000000000 ) ) ;
#193 = CARTESIAN_POINT ( 'NONE',  ( 0.0000000000000000000, 0.0000000000000000000, 0.0000000000000000000 ) ) ;
#194 = ADVANCED_BREP_SHAPE_REPRESENTATION ( '3AC-10', ( #95, #334 ), #352 ) ;
#195 = AXIS2_PLACEMENT_3D ( 'NONE', #283, #341, #80 ) ;
#196 = DIRECTION ( 'NONE',  ( -1.000000000000000000, -0.0000000000000000000, -0.0000000000000000000 ) ) ;
#197 = CIRCLE ( 'NONE', #370, 2.000000000000000000 ) ;
#198 = DIRECTION ( 'NONE',  ( -1.000000000000000000, 0.0000000000000000000, -0.0000000000000000000 ) ) ;
#199 = EDGE_CURVE ( 'NONE', #342, #52, #21, .T. ) ;
#200 = VERTEX_POINT ( 'NONE', #329 ) ;
#201 = EDGE_LOOP ( 'NONE', ( #111, #263, #90, #57 ) ) ;
#202 = FACE_OUTER_BOUND ( 'NONE', #32, .T. ) ;
#203 = AXIS2_PLACEMENT_3D ( 'NONE', #217, #5, #126 ) ;
#204 = EDGE_LOOP ( 'NONE', ( #243, #109, #312, #206 ) ) ;
#205 = AXIS2_PLACEMENT_3D ( 'NONE', #332, #10, #229 ) ;
#206 = ORIENTED_EDGE ( 'NONE', *, *, #142, .F. ) ;
#207 = CIRCLE ( 'NONE', #33, 5.125000000000001776 ) ;
#208 = DIRECTION ( 'NONE',  ( 0.0000000000000000000, 0.0000000000000000000, 1.000000000000000000 ) ) ;
#209 = AXIS2_PLACEMENT_3D ( 'NONE', #346, #198, #340 ) ;
#210 = COLOUR_RGB ( '',0.7921568627450980005, 0.8196078431372548767, 0.9333333333333333481 ) ;
#211 = ADVANCED_FACE ( 'NONE', ( #36, #98 ), #276, .F. ) ;
#212 =( LENGTH_UNIT ( ) NAMED_UNIT ( * ) SI_UNIT ( $, .METRE. ) );
#213 = ORIENTED_EDGE ( 'NONE', *, *, #26, .F. ) ;
#214 = DIMENSIONAL_EXPONENTS ( 1.000000000000000000, 0.0000000000000000000, 0.0000000000000000000, 0.0000000000000000000, 0.0000000000000000000, 0.0000000000000000000, 0.0000000000000000000 ) ;
#215 = LINE ( 'NONE', #178, #224 ) ;
#216 = CARTESIAN_POINT ( 'NONE',  ( 0.3125000000000005551, 0.0000000000000000000, 0.0000000000000000000 ) ) ;
#217 = CARTESIAN_POINT ( 'NONE',  ( 0.0000000000000000000, 0.0000000000000000000, 0.0000000000000000000 ) ) ;
#218 = DIRECTION ( 'NONE',  ( -1.000000000000000000, -0.0000000000000000000, -0.0000000000000000000 ) ) ;
#219 =( NAMED_UNIT ( * ) PLANE_ANGLE_UNIT ( ) SI_UNIT ( $, .RADIAN. ) );
#220 = CARTESIAN_POINT ( 'NONE',  ( 0.0000000000000000000, 0.0000000000000000000, 0.0000000000000000000 ) ) ;
#221 = DIRECTION ( 'NONE',  ( -0.0000000000000000000, 0.0000000000000000000, 1.000000000000000000 ) ) ;
#222 = DIRECTION ( 'NONE',  ( 1.000000000000000000, 0.0000000000000000000, 0.0000000000000000000 ) ) ;
#223 = CARTESIAN_POINT ( 'NONE',  ( 3.875000000000000444, 6.123233995736766282E-16, -5.000000000000000000 ) ) ;
#224 = VECTOR ( 'NONE', #359, 39.37007874015748143 ) ;
#225 = AXIS2_PLACEMENT_3D ( 'NONE', #160, #104, #281 ) ;
#226 = LINE ( 'NONE', #339, #163 ) ;
#227 = FACE_OUTER_BOUND ( 'NONE', #296, .T. ) ;
#228 = AXIS2_PLACEMENT_3D ( 'NONE', #333, #123, #182 ) ;
#229 = DIRECTION ( 'NONE',  ( 0.0000000000000000000, 0.0000000000000000000, 1.000000000000000000 ) ) ;
#230 = CARTESIAN_POINT ( 'NONE',  ( 3.875000000000000444, 0.0000000000000000000, 1.999999999999999778 ) ) ;
#231 = UNCERTAINTY_MEASURE_WITH_UNIT (LENGTH_MEASURE( 1.000000000000000082E-05 ), #91, 'distance_accuracy_value', 'NONE');
#232 = EDGE_CURVE ( 'NONE', #2, #271, #105, .T. ) ;
#233 = PLANE ( 'NONE',  #195 ) ;
#234 =( GEOMETRIC_REPRESENTATION_CONTEXT ( 3 ) GLOBAL_UNCERTAINTY_ASSIGNED_CONTEXT ( ( #231 ) ) GLOBAL_UNIT_ASSIGNED_CONTEXT ( ( #91, #66, #147 ) ) REPRESENTATION_CONTEXT ( 'NONE', 'WORKASPACE' ) );
#235 = ORIENTED_EDGE ( 'NONE', *, *, #277, .T. ) ;
#236 = ORIENTED_EDGE ( 'NONE', *, *, #260, .T. ) ;
#237 = VERTEX_POINT ( 'NONE', #153 ) ;
#238 = ORIENTED_EDGE ( 'NONE', *, *, #16, .F. ) ;
#239 = CIRCLE ( 'NONE', #61, 5.000000000000000000 ) ;
#240 = DIRECTION ( 'NONE',  ( -1.000000000000000000, -0.0000000000000000000, -0.0000000000000000000 ) ) ;
#241 = CLOSED_SHELL ( 'NONE', ( #323, #350, #288, #183, #268, #293, #86, #189, #211, #23, #151, #309 ) ) ;
#242 = SURFACE_SIDE_STYLE ('',( #118 ) ) ;
#243 = ORIENTED_EDGE ( 'NONE', *, *, #251, .F. ) ;
#244 = DIMENSIONAL_EXPONENTS ( 1.000000000000000000, 0.0000000000000000000, 0.0000000000000000000, 0.0000000000000000000, 0.0000000000000000000, 0.0000000000000000000, 0.0000000000000000000 ) ;
#245 = AXIS2_PLACEMENT_3D ( 'NONE', #11, #330, #96 ) ;
#246 = EDGE_CURVE ( 'NONE', #170, #17, #207, .T. ) ;
#247 = CARTESIAN_POINT ( 'NONE',  ( 0.3125000000000005551, 6.123233995736766282E-16, -5.000000000000000000 ) ) ;
#248 = LINE ( 'NONE', #179, #338 ) ;
#249 = VERTEX_POINT ( 'NONE', #188 ) ;
#250 = CARTESIAN_POINT ( 'NONE',  ( 0.0000000000000000000, 0.0000000000000000000, 0.0000000000000000000 ) ) ;
#251 = EDGE_CURVE ( 'NONE', #77, #117, #190, .T. ) ;
#252 = DIRECTION ( 'NONE',  ( -1.000000000000000000, -0.0000000000000000000, -0.0000000000000000000 ) ) ;
#253 = DIRECTION ( 'NONE',  ( 1.000000000000000000, -0.0000000000000000000, -0.0000000000000000000 ) ) ;
#254 = DIRECTION ( 'NONE',  ( 1.000000000000000000, 0.0000000000000000000, 0.0000000000000000000 ) ) ;
#255 = CIRCLE ( 'NONE', #92, 5.000000000000000000 ) ;
#256 = FACE_OUTER_BOUND ( 'NONE', #201, .T. ) ;
#257 = DIRECTION ( 'NONE',  ( -1.000000000000000000, -0.0000000000000000000, -0.0000000000000000000 ) ) ;
#258 = AXIS2_PLACEMENT_3D ( 'NONE', #62, #364, #100 ) ;
#259 = DIRECTION ( 'NONE',  ( 1.000000000000000000, -0.0000000000000000000, -0.0000000000000000000 ) ) ;
#260 = EDGE_CURVE ( 'NONE', #82, #249, #120, .T. ) ;
#261 = VERTEX_POINT ( 'NONE', #223 ) ;
#262 = PRODUCT ( '3AC-10', '3AC-10', '', ( #155 ) ) ;
#263 = ORIENTED_EDGE ( 'NONE', *, *, #246, .T. ) ;
#264 = FILL_AREA_STYLE ('',( #138 ) ) ;
#265 = ORIENTED_EDGE ( 'NONE', *, *, #81, .T. ) ;
#266 = EDGE_LOOP ( 'NONE', ( #146, #265, #373, #168 ) ) ;
#267 = CYLINDRICAL_SURFACE ( 'NONE', #119, 2.000000000000000000 ) ;
#268 = ADVANCED_FACE ( 'NONE', ( #185 ), #41, .T. ) ;
#269 = ORIENTED_EDGE ( 'NONE', *, *, #16, .T. ) ;
#270 = DIRECTION ( 'NONE',  ( 0.0000000000000000000, 0.0000000000000000000, 1.000000000000000000 ) ) ;
#271 = VERTEX_POINT ( 'NONE', #127 ) ;
#272 = CARTESIAN_POINT ( 'NONE',  ( 3.875000000000000444, 2.449293598294705921E-16, -1.999999999999999778 ) ) ;
#273 = DIRECTION ( 'NONE',  ( 0.0000000000000000000, 0.0000000000000000000, -1.000000000000000000 ) ) ;
#274 = LENGTH_MEASURE_WITH_UNIT ( LENGTH_MEASURE( 0.02539999999999999897 ), #212 );
#275 = LINE ( 'NONE', #121, #68 ) ;
#276 = PLANE ( 'NONE',  #290 ) ;
#277 = EDGE_CURVE ( 'NONE', #249, #52, #248, .T. ) ;
#278 = CYLINDRICAL_SURFACE ( 'NONE', #180, 5.000000000000000000 ) ;
#279 = CARTESIAN_POINT ( 'NONE',  ( 0.0000000000000000000, 0.0000000000000000000, -1.515625000000000000 ) ) ;
#280 = DIRECTION ( 'NONE',  ( 1.000000000000000000, 0.0000000000000000000, 0.0000000000000000000 ) ) ;
#281 = DIRECTION ( 'NONE',  ( 0.0000000000000000000, 0.0000000000000000000, -1.000000000000000000 ) ) ;
#282 = AXIS2_PLACEMENT_3D ( 'NONE', #378, #363, #102 ) ;
#283 = CARTESIAN_POINT ( 'NONE',  ( 9.375000000000000000, 0.0000000000000000000, 0.0000000000000000000 ) ) ;
#284 = ORIENTED_EDGE ( 'NONE', *, *, #54, .T. ) ;
#285 = LINE ( 'NONE', #18, #292 ) ;
#286 = ORIENTED_EDGE ( 'NONE', *, *, #166, .F. ) ;
#287 = ORIENTED_EDGE ( 'NONE', *, *, #232, .T. ) ;
#288 = ADVANCED_FACE ( 'NONE', ( #34 ), #7, .T. ) ;
#289 = ORIENTED_EDGE ( 'NONE', *, *, #171, .T. ) ;
#290 = AXIS2_PLACEMENT_3D ( 'NONE', #3, #156, #273 ) ;
#291 = ORIENTED_EDGE ( 'NONE', *, *, #171, .F. ) ;
#292 = VECTOR ( 'NONE', #196, 39.37007874015748143 ) ;
#293 = ADVANCED_FACE ( 'NONE', ( #304, #128 ), #233, .F. ) ;
#294 = DIRECTION ( 'NONE',  ( -1.000000000000000000, -0.0000000000000000000, -0.0000000000000000000 ) ) ;
#295 = CARTESIAN_POINT ( 'NONE',  ( 0.0000000000000000000, 0.0000000000000000000, 0.0000000000000000000 ) ) ;
#296 = EDGE_LOOP ( 'NONE', ( #84, #349, #291, #377 ) ) ;
#297 = ORIENTED_EDGE ( 'NONE', *, *, #75, .F. ) ;
#298 = CIRCLE ( 'NONE', #205, 5.125000000000001776 ) ;
#299 = FACE_OUTER_BOUND ( 'NONE', #22, .T. ) ;
#300 = DIRECTION ( 'NONE',  ( -1.000000000000000000, -0.0000000000000000000, -0.0000000000000000000 ) ) ;
#301 = DIRECTION ( 'NONE',  ( 0.0000000000000000000, 0.0000000000000000000, -1.000000000000000000 ) ) ;
#302 = DIRECTION ( 'NONE',  ( -1.000000000000000000, 0.0000000000000000000, -0.0000000000000000000 ) ) ;
#303 = AXIS2_PLACEMENT_3D ( 'NONE', #135, #133, #311 ) ;
#304 = FACE_BOUND ( 'NONE', #174, .T. ) ;
#305 = CARTESIAN_POINT ( 'NONE',  ( 0.0000000000000000000, 0.0000000000000000000, 0.0000000000000000000 ) ) ;
#306 = CARTESIAN_POINT ( 'NONE',  ( 0.0000000000000000000, 0.0000000000000000000, 0.0000000000000000000 ) ) ;
#307 = DIRECTION ( 'NONE',  ( -1.000000000000000000, -0.0000000000000000000, -0.0000000000000000000 ) ) ;
#308 = DIRECTION ( 'NONE',  ( 0.0000000000000000000, 0.0000000000000000000, -1.000000000000000000 ) ) ;
#309 = ADVANCED_FACE ( 'NONE', ( #76, #49 ), #46, .F. ) ;
#310 =( NAMED_UNIT ( * ) SI_UNIT ( $, .STERADIAN. ) SOLID_ANGLE_UNIT ( ) );
#311 = DIRECTION ( 'NONE',  ( 0.0000000000000000000, 0.0000000000000000000, 1.000000000000000000 ) ) ;
#312 = ORIENTED_EDGE ( 'NONE', *, *, #175, .T. ) ;
#313 = CYLINDRICAL_SURFACE ( 'NONE', #303, 5.125000000000001776 ) ;
#314 = PRODUCT_DEFINITION ( 'UNKNOWN', '', #382, #132 ) ;
#315 = ORIENTED_EDGE ( 'NONE', *, *, #125, .F. ) ;
#316 = DIRECTION ( 'NONE',  ( -1.000000000000000000, -0.0000000000000000000, -0.0000000000000000000 ) ) ;
#317 = ORIENTED_EDGE ( 'NONE', *, *, #246, .F. ) ;
#318 = ORIENTED_EDGE ( 'NONE', *, *, #159, .T. ) ;
#319 = ORIENTED_EDGE ( 'NONE', *, *, #142, .T. ) ;
#320 = AXIS2_PLACEMENT_3D ( 'NONE', #193, #316, #337 ) ;
#321 = DIRECTION ( 'NONE',  ( 0.0000000000000000000, 0.0000000000000000000, 1.000000000000000000 ) ) ;
#322 = EDGE_LOOP ( 'NONE', ( #369, #287 ) ) ;
#323 = ADVANCED_FACE ( 'NONE', ( #202 ), #313, .T. ) ;
#324 = AXIS2_PLACEMENT_3D ( 'NONE', #220, #181, #301 ) ;
#325 = CARTESIAN_POINT ( 'NONE',  ( 0.3125000000000005551, 0.0000000000000000000, 5.000000000000000000 ) ) ;
#326 = DIRECTION ( 'NONE',  ( 0.0000000000000000000, 0.0000000000000000000, -1.000000000000000000 ) ) ;
#327 = VECTOR ( 'NONE', #253, 39.37007874015748143 ) ;
#328 = CYLINDRICAL_SURFACE ( 'NONE', #324, 1.515625000000000000 ) ;
#329 = CARTESIAN_POINT ( 'NONE',  ( 9.375000000000000000, 0.0000000000000000000, -1.515625000000000000 ) ) ;
#330 = DIRECTION ( 'NONE',  ( -1.000000000000000000, -0.0000000000000000000, -0.0000000000000000000 ) ) ;
#331 = PRESENTATION_LAYER_ASSIGNMENT (  '', '', ( #154 ) ) ;
#332 = CARTESIAN_POINT ( 'NONE',  ( 0.3125000000000005551, 0.0000000000000000000, 0.0000000000000000000 ) ) ;
#333 = CARTESIAN_POINT ( 'NONE',  ( 0.0000000000000000000, 0.0000000000000000000, 0.0000000000000000000 ) ) ;
#334 = AXIS2_PLACEMENT_3D ( 'NONE', #99, #177, #222 ) ;
#335 = CYLINDRICAL_SURFACE ( 'NONE', #383, 5.125000000000001776 ) ;
#336 = DIRECTION ( 'NONE',  ( 0.0000000000000000000, 0.0000000000000000000, 1.000000000000000000 ) ) ;
#337 = DIRECTION ( 'NONE',  ( 0.0000000000000000000, 0.0000000000000000000, 1.000000000000000000 ) ) ;
#338 = VECTOR ( 'NONE', #300, 39.37007874015748143 ) ;
#339 = CARTESIAN_POINT ( 'NONE',  ( 0.0000000000000000000, 0.0000000000000000000, -1.515625000000000000 ) ) ;
#340 = DIRECTION ( 'NONE',  ( -0.0000000000000000000, 0.0000000000000000000, 1.000000000000000000 ) ) ;
#341 = DIRECTION ( 'NONE',  ( -1.000000000000000000, 0.0000000000000000000, -0.0000000000000000000 ) ) ;
#342 = VERTEX_POINT ( 'NONE', #230 ) ;
#343 = EDGE_CURVE ( 'NONE', #17, #271, #47, .T. ) ;
#344 = EDGE_LOOP ( 'NONE', ( #315, #317 ) ) ;
#345 = PRODUCT_DEFINITION_SHAPE ( 'NONE', 'NONE',  #314 ) ;
#346 = CARTESIAN_POINT ( 'NONE',  ( 0.3125000000000005551, 5.000000000000000000, 0.0000000000000000000 ) ) ;
#347 = ORIENTED_EDGE ( 'NONE', *, *, #125, .T. ) ;
#348 = AXIS2_PLACEMENT_3D ( 'NONE', #191, #307, #42 ) ;
#349 = ORIENTED_EDGE ( 'NONE', *, *, #9, .T. ) ;
#350 = ADVANCED_FACE ( 'NONE', ( #107 ), #165, .F. ) ;
#351 = CARTESIAN_POINT ( 'NONE',  ( 3.875000000000000444, 0.0000000000000000000, 0.0000000000000000000 ) ) ;
#352 =( GEOMETRIC_REPRESENTATION_CONTEXT ( 3 ) GLOBAL_UNCERTAINTY_ASSIGNED_CONTEXT ( ( #44 ) ) GLOBAL_UNIT_ASSIGNED_CONTEXT ( ( #110, #14, #310 ) ) REPRESENTATION_CONTEXT ( 'NONE', 'WORKASPACE' ) );
#353 = ORIENTED_EDGE ( 'NONE', *, *, #199, .F. ) ;
#354 = SURFACE_STYLE_USAGE ( .BOTH. , #242 ) ;
#355 = EDGE_LOOP ( 'NONE', ( #145, #297 ) ) ;
#356 = LENGTH_MEASURE_WITH_UNIT ( LENGTH_MEASURE( 0.02539999999999999897 ), #124 );
#357 = ORIENTED_EDGE ( 'NONE', *, *, #75, .T. ) ;
#358 = DIRECTION ( 'NONE',  ( 0.0000000000000000000, 0.0000000000000000000, -1.000000000000000000 ) ) ;
#359 = DIRECTION ( 'NONE',  ( -1.000000000000000000, -0.0000000000000000000, -0.0000000000000000000 ) ) ;
#360 = DIRECTION ( 'NONE',  ( -1.000000000000000000, -0.0000000000000000000, -0.0000000000000000000 ) ) ;
#361 = PRESENTATION_STYLE_ASSIGNMENT (( #367 ) ) ;
#362 = DIRECTION ( 'NONE',  ( 0.0000000000000000000, 0.0000000000000000000, 1.000000000000000000 ) ) ;
#363 = DIRECTION ( 'NONE',  ( -1.000000000000000000, -0.0000000000000000000, -0.0000000000000000000 ) ) ;
#364 = DIRECTION ( 'NONE',  ( -1.000000000000000000, -0.0000000000000000000, -0.0000000000000000000 ) ) ;
#365 =( GEOMETRIC_REPRESENTATION_CONTEXT ( 3 ) GLOBAL_UNCERTAINTY_ASSIGNED_CONTEXT ( ( #74 ) ) GLOBAL_UNIT_ASSIGNED_CONTEXT ( ( #37, #219, #65 ) ) REPRESENTATION_CONTEXT ( 'NONE', 'WORKASPACE' ) );
#366 = CARTESIAN_POINT ( 'NONE',  ( 0.0000000000000000000, 1.856105304957707054E-16, 1.515625000000000000 ) ) ;
#367 = SURFACE_STYLE_USAGE ( .BOTH. , #161 ) ;
#368 =( LENGTH_UNIT ( ) NAMED_UNIT ( * ) SI_UNIT ( $, .METRE. ) );
#369 = ORIENTED_EDGE ( 'NONE', *, *, #379, .T. ) ;
#370 = AXIS2_PLACEMENT_3D ( 'NONE', #25, #141, #321 ) ;
#371 = LENGTH_MEASURE_WITH_UNIT ( LENGTH_MEASURE( 0.02539999999999999897 ), #368 );
#372 = ORIENTED_EDGE ( 'NONE', *, *, #112, .T. ) ;
#373 = ORIENTED_EDGE ( 'NONE', *, *, #26, .T. ) ;
#374 = ORIENTED_EDGE ( 'NONE', *, *, #175, .F. ) ;
#375 = EDGE_CURVE ( 'NONE', #149, #29, #285, .T. ) ;
#376 = CARTESIAN_POINT ( 'NONE',  ( 3.875000000000000444, 0.0000000000000000000, 0.0000000000000000000 ) ) ;
#377 = ORIENTED_EDGE ( 'NONE', *, *, #375, .F. ) ;
#378 = CARTESIAN_POINT ( 'NONE',  ( 3.875000000000000444, 0.0000000000000000000, 0.0000000000000000000 ) ) ;
#379 = EDGE_CURVE ( 'NONE', #271, #2, #73, .T. ) ;
#380 = ORIENTED_EDGE ( 'NONE', *, *, #9, .F. ) ;
#381 = CIRCLE ( 'NONE', #162, 5.000000000000000000 ) ;
#382 = PRODUCT_DEFINITION_FORMATION_WITH_SPECIFIED_SOURCE ( 'ANY', '', #262, .NOT_KNOWN. ) ;
#383 = AXIS2_PLACEMENT_3D ( 'NONE', #305, #71, #69 ) ;
ENDSEC;
END-ISO-10303-21;
